Oops, an error
Loading. Please wait.

Red Rubber Ball bass

version 1
version 1

Whole song

Interactive

211 views 6 this week
no commentswrite comment
1 2 3 4 5
3 more votes to show rating
add to favorites
×
Save as Personal and add changes to this tab that will be seen only by you. Learn more ›
×
You can save this tab as Personal to edit and correct it or add notes. All changes will be seen only by you. Learn more »
launch autoscroll
font size
0
reset
guitar tuner
edit
Autoscroll
slow
fast
+/-
esc
set tempo
stop
Author
Difficulty
Tabbed by: 6METAL6BASSIST6
E-mail: petergriffinav@gmail.com

Tuning: EADG

G|------------------------------------------------------------------------------------------------|
D|7-----------------------------------------------------------------------------------------------|
A|------------------------------------------------9-----------------------------------------------|
E|------------------------------------------------------------------------------------------------|

G|------------------------------------------------------------------------------------------------|
D|------------------------------------------------------------------------------------------------|
A|5-----------------------------------------------7-----------------------------------------------|
E|------------------------------------------------------------------------------------------------|

0:10

G|------------------------------------------------------------------------------------------------|
D|7-----------------7-----------------6-----------------------7-----------7-----------------------|
A|------------7-----------4-----------------4-----5---------5-------5-----------------7---------7-|
E|------------------------------------------------------------------------------------------------|

G|------------------------------------------------------------------------------------------------|
D|7-----------------------------------6-----------------------7-----------------------------------|
A|------------7-----5-----4-----------------4-----5-----------------5-----7-----------------------|
E|------------------------------------------------------------------------------------7-----------|

G|------------------------|
D|------------------------|
A|7-----------7-----6-----|
E|------------------------|

0:22

G|------------------------------------------------------------------------------------------------|
D|------------7-----------------------9-----------7-----------------------------------------------|
A|5-----------------5-----7-----------------7-----------------7-----------9-----------------------|
E|------------------------------------------------------------------------------------9-----8-----|

G|------------------------------------------------------------------------------------------------|
D|------------------------------------------------------------------------------------------------|
A|----------9-----------------------11----------------------12----------------------11------------|
E|7-----------------7-----9-----------------9-----10----------------10----9-----------------9-----|

G|------------------------------------------------------------------------------------------------|
D|------------------------------------------------------------------------------------------------|
A|9---------9-9-----------9---------9-9-----------------------------------------------------------|
E|------------------------------------------------7---------7-7-----------7---------7-7-----------|

G|------------------------------------------------------------------------|
D|------------------------------------------------------------------------|
A|7---------7-7-----------7---------7-7-----6-----5-----------------------|
E|------------------------------------------------------------------------|

G|------------------------------------------------------------------------------------------------|
D|7-----------------------------------------------------------------------------------------------|
A|------------------------------------------------9-----------------------7-----------------------|
E|------------------------------------------------------------------------------------------------|

0:47

G|------------------------------------------------------------------------------------------------|
D|7-----------------7-----------------6-----------------------7-----------7-----------------------|
A|------------7-----------4---------4-------4-----5-----------------5-----------------7-----------|
E|------------------------------------------------------------------------------------------------|

G|------------------------------------------------------------------------------------------------|
D|7-----------------------------------6-----------------------7-----------------------------------|
A|------------7-----5-----4-----------------4-----5-----------------5-----7-----------------------|
E|------------------------------------------------------------------------------------7-----------|

G|------------------------|
D|------------------------|
A|7-----------7-----6-----|
E|------------------------|

0:59

G|------------------------------------------------------------------------------------------------|
D|------------7-----------------------------------7-----------------------------------------------|
A|5-----------------5-----7-----------------7-----------------7-----------9-----------------------|
E|------------------------------------7-----------------------------------------------9-----8-----|

G|------------------------------------------------------------------------------------------------|
D|------------------------------------------------------------------------------------------------|
A|----------9-----------------------11----------------------12----------------------11------------|
E|7-----------------7-----9-----------------9-----10----------------10----9-----------------9-----|

G|------------------------------------------------------------------------------------------------|
D|------------------------------------------------------------------------------------------------|
A|9---------9-9-----------9---------9-9-----------------------------------------------------------|
E|------------------------------------------------7---------7-7-----------7---------7-7-----------|

G|------------------------------------------------------------------------|
D|------------------------------------------------------------------------|
A|7---------7-7-----------7---------7-7-----------5-----------------------|
E|------------------------------------------------------------------------|

G|------------------------------------------------------------------------------------------------|
D|7-----------------------7---------7-------------------------------------------------------------|
A|------------7-----------------------7-----8-----9-----------------9-----8-----------------------|
E|------------------------------------------------------------9-----------------------------------|

1:23

G|------------------------------------------------------------------------------------------------|
D|8-----------------8-----------------7-----------------------8-----------8-----------------------|
A|------------8-----------5---------5-------5-----6-----------------6-----------------8-----------|
E|------------------------------------------------------------------------------------------------|

G|------------------------------------------------------------------------------------------------|
D|8-----------------------------------8-----------------------------------------------------------|
A|------------8-----6-----5-----------------------6-----------6-----7-----8-----------------------|
E|------------------------------------------------------------------------------------8-----------|

G|------------------------|
D|------------------------|
A|8-----------8-----7-----|
E|------------------------|

1:34

G|------------------------------------------------------------------------------------------------|
D|------------8-----------------------------------8-----------------------------------------------|
A|6-----------------6-----8-----------------8-----------------8-----------10----------------------|
E|------------------------------------8-----------------------------------------------10----9-----|

G|------------------------------------------------------------------------------------------------|
D|------------------------------------------------------------------------------------------------|
A|----------10----------------------12----------------------13----------------------12------------|
E|8-----------------8-----10----------------10----11----------------11----10----------------10----|

G|------------------------------------------------------------------------------------------------|
D|------------------------------------------------------------------------------------------------|
A|10------10-10-----------10------10-10-----------------------------------------------------------|
E|------------------------------------------------8---------8-8-----------8---------8-8-----------|

G|------------------------------------------------------------------------------------------------|
D|------------------------------------------------------------------------8-----8-----8-----7-----|
A|8---------8-8-----------8---------8-8-----7-----6-----------------------------------------------|
E|------------------------------------------------------------------------------------------------|

1:55

G|------------------------------------------------------------------------------------------------|
D|------------------------------------------------------------------------------------------------|
A|10------10-10-----------10------10-10-----------------------------------------------------------|
E|------------------------------------------------8---------8-8-----------8---------8-8-----------|

G|------------------------------------------------------------------------|
D|------------------------------------------------------------------------|
A|8---------8-8-----------8---------8-8-----------6-----------------------|
E|------------------------------------------------------------------------|

G|------------------------------------------------------------------------------------------------|
D|8-----------------------8-----------------------------------------------------------------------|
A|------------8------------------------8----9-----10----------------------10----------10----8-----|
E|------------------------------------------------------------10----------------------------------|

G|------------------------------------------------------------------------------------------------|
D|------------8-----------------------8-----------8-----------------------------------------------|
A|6-----------------------6---------6-------6-----------------------------------------------------|
E|------------------------------------------------------------------------------------------------|

            
            
Suggest correction
Creating personal tab
Creating personal tab
You can edit any tab online and save it as your Personal.

You can edit, replace or remove any tab part or add personal notes – all changes will be seen only by you.

Personal tabs can be accessed anytime from any device, even offline.
Learn more »
Give kudos to tab author, rate the tab!
1 2 3 4 5
comments
print report bad tab
guest
You may want to rate the tab now too:
select rating
Wanna post a correction for this tab? Suggest correction