Oops, an error
Loading. Please wait.

Lipstick bass

149 views 1 this week
no commentswrite comment
1 2 3 4 5
3 more votes to show rating
add to favorites
×
Save as Personal and add changes to this tab that will be seen only by you. Learn more ›
×
You can save this tab as Personal to edit and correct it or add notes. All changes will be seen only by you. Learn more »
launch autoscroll
font size
0
reset
guitar tuner
edit
Autoscroll
slow
fast
+/-
esc
set tempo
stop
Author
Difficulty
http://www.myspace.com/thedanceparty

Lipstick by The Dance Party
Album: Friction! Friction! Friction!

tabed by Daniel aka. Danny
e-mail: super_920@hotmail.com

Instrument: Bass
Tuning: GDAE (Standard)

My first tab ever so please give feedback!

This song is really easy, all of the song is pretty much the same just some small difference's.
I've written down the whole song so you can see exactly how I play it. 

Feedback is appreciated!! Please don't copy without asking.




Start at 0:05
Intro:
G|-----------------------------------------|
D|-----------------------------------------|
A|--------5555555533333333/77777777--------|
E|----3333-------------------------33333333|	x1


G|---------------------------------|
D|---------------------------------|
A|5555555533333333/77777777--------|
E|-------------------------33333333|	x4		


G|-----------------------------------------|
D|-----------------------------------------|
A|5555555533333333/77777777----------------|
E|-------------------------3333/15-15-15-15|	x1


G|---------------------------------|
D|---------------------------------|
A|5555555533333333/77777777--------|
E|-------------------------33333333|	x5	


G|-----------------------------------------|
D|-----------------------------------------|
A|5555555533333333/77777777----------------|
E|-------------------------3333/15-15-15-15|	x1


G|---------------------------------|
D|---------------------------------|
A|5555555533333333/77777777--------|
E|-------------------------33333333|	x1


G|--------------------------------|
D|--------------------------------|
A|2222222255555555----------------|
E|----------------3333333333333333|	x2


G|---------------------------------|
D|---------------------------------|
A|5555555533333333/77777777--------|
E|-------------------------33333333|	x6


G|-----------------------------------------|
D|-----------------------------------------|
A|5555555533333333/77777777----------------|
E|-------------------------3333/15-15-15-15|	x1

G|---------------------------------|
D|---------------------------------|
A|5555555533333333/77777777--------|
E|-------------------------33333333|	x1


G|--------------------------------|
D|--------------------------------|
A|2222222255555555----------------|
E|----------------3333333333333333|	x2


G|---------------------------------|
D|---------------------------------|
A|55555555/7777777733333333--------|
E|-------------------------33333333|	x4


G|---------------------------------|
D|---------------------------------|
A|5555555533333333/77777777--------|
E|-------------------------33333333|	x1


G|-----------------------------------------|
D|-----------------------------------------|
A|5555555533333333/77777777----------------|
E|-------------------------3333/15-15-15-15|	x3

            
            
Suggest correction
Creating personal tab
Creating personal tab
You can edit any tab online and save it as your Personal.

You can edit, replace or remove any tab part or add personal notes – all changes will be seen only by you.

Personal tabs can be accessed anytime from any device, even offline.
Learn more »
Give kudos to tab author, rate the tab!
1 2 3 4 5
comments
print report bad tab
guest
You may want to rate the tab now too:
select rating
Wanna post a correction for this tab? Suggest correction