Oops, an error
Loading. Please wait.

Big Indian Chords

version 1
version 1

Whole song

Interactive

8,637 views 1 this week
1 commentread comment
1 2 3 4 5
please rate
add to favorites
launch autoscroll
font size
0
reset
transpose
0
reset
display chords
guitar tuner
Tab Pro tools
  • play this tab
  • loop segment
  • change instrument
  • show fretboard
  • metronome
×
Best way to learn
"Big Indian"
Autoscroll
slow
fast
+/-
esc
set tempo
stop
Contributor
Big Indian

by The Dandy Warhols
from album 'Thirteen tales from urban bohemia'

transcribed by Christian Reindel (creindel@gmx.de)
any questions or corrections- e-mail me

Normal tuning
   
    Main-Part
   
    D            C      G       D  
E:|-2--2--2-2-2--0-0-0--0--0-0--2--2--2-2-------|
B:|-3--3--3-3-3--1-1-1--3--3-3--3--3--3-3-------|
G:|-2--2--2-2-2--0-0-0--0--0-0--2--2--2-2-------|
D:|-0--0--0-0-0--2-2-2--0--0-0--0--0--0-0-------|
A:|--------------3-3-3--2--2-2------------------|
E:|---------------------3--3-3------------------|
 

     The Future is fridning ...   
   
      this part 3 times
    G       D                C       G       C       D
E:|-0--0-0--2--2--2-2------|-0--0-0--0-------0--0-0--2--|
B:|-3--3-3--3--3--3-3------|-1--1-1--3-------1--1-1--3--|
G:|-0--0-0--2--2--2-2------|-0--0-0--0-------0--0-0--2--|
D:|-0--0-0--0--0--0-0------|-2--2-2--0-------2--2-2--0--|
A:|-2--2-2-----------------|-3--3-3--2-------3--3-3-----|
E:|-3--3-3-----------------|---------3------------------|
comments
We did not receive enough feedback on this tab! Please rate:
print report bad tab
1 2 3 4 5
1 comment total.
0 reply
Tihacker wrote on June 25 2015, 12:28 pm

E:|-0--0-0--2--2--2-2------|-1--0-0--0-------1--0-0--2--|
B:|-3--3-3--3--3--3-3------|-1--1-1--3-------1--1-1--3--|
G:|-0--0-0--2--2--2-2------|-2--0-0--0-------2--0-0--2--|
D:|-0--0-0--0--0--0-0------|-3--2-2--0-------3--2-2--0--|
A:|-2--2-2-----------------|-3--3-3--2-------3--3-3-----|
E:|-3--3-3-----------------|---------3------------------|


i think this is more correct

I want to post or [tab]
guest
You may want to rate the tab now too:
select rating
Please do not post tabs as comments. Select "correction" instead!