Oops, an error
Loading. Please wait.

Bohemian Like You Bass Tab

version 4
version 4

Whole song

7,055 views 54 this week
no commentswrite comment
1 2 3 4 5
excellent!
x 5
add to favorites
launch autoscroll
font size
0
reset
guitar tuner
Tab Pro tools
  • play this tab
  • loop segment
  • change instrument
  • show fretboard
  • metronome
Autoscroll
slow
fast
+/-
esc
set tempo
stop
Contributor
Difficulty
novice
-------------------------------------------------------------------------------
                             BOHEMIAN LIKE YOU - The Dandy Warhols
-------------------------------------------------------------------------------
Tabbed by: Dan Hardy
E-mail: dhardy50@hotmail.co.uk

Tuning: Standard

Improved bass tab

Intro, start at 0:21
G|-----------------------------------------------------------------------------------|
D|-----------------------------------------------------------------------------------|
A|-----------------------------------------------------------------------------------|
E|-12-12-12-12-12-12-12-12\7---------------------------------------------------------|

Main Riff
G|-----------------------------------------------------------------------------------|
D|-----------------------------------------------------------------------------------|
A|-----------------------------------------------------------------------------------|
E|-7-7-7-7-7-7-7-7/10-10-10-10-10-10-10-10\5-5-5-5-5-5-5-5/12-12-12-12-12-12-12-12---|

Bridge
G|-----------------------------------------------------------------------------------|
D|-9-7-------------------------------------------------------------------------------|
A|-----9-----------------------------------------------------------------------------|
E|-------7--7-7-7--------------------------------------------------------------------|
x4

"You've got a great car..."
G|-----------------------------------------------------------------------------------|
D|-----------------------------------------------------------------------------------|
A|-----------------------------------------------------------------------------------|
E|-7-7-7-7-7-7-7-7/10-10-10-10-10-10-10-10\5-5-5-5-5-5-5-5/12-12-12-12-12-12-12-12---|
x2

G|-----------------------------------------------------------------------------------|
D|-9-7-------------------------------------------------------------------------------|
A|-----9-----------------------------------------------------------------------------|
E|-------7--7-7-7--------------------------------------------------------------------|
x4

"So what do'ya do?..."
G|-----------------------------------------------------------------------------------|
D|-----------------------------------------------------------------------------------|
A|-----------------------------------------------------------------------------------|
E|-7-7-7-7-7-7-7-7/10-10-10-10-10-10-10-10\5-5-5-5-5-5-5-5-0-0-0-0-0-0-0-0-----------|
x2

" 'Cos I like you..."
G|-----------------------------------------------------------------------------------|
D|-----------------------------------------------------------------------------------|
A|-----------------------------------------------------------------------------------|
E|-7-7-7-7-7-7-7-7/10-10-10-10-10-10-10-10\5-5-5-5-5-5-5-5/12-12-12-12-12-12-12-12---|
x4

G|-----------------------------------------------------------------------------------|
D|-9-7-------------------------------------------------------------------------------|
A|-----9-----------------------------------------------------------------------------|
E|-------7--7-7-7--------------------------------------------------------------------|
x3 on last one fade last 7 out

"Who's that guy..."    (play quietly)
G|-----------------------------------------------------------------------------------|
D|-----------------------------------------------------------------------------------|
A|-----------------------------------------------------------------------------------|
E|-7-7-7-7-7-7-7-7/10-10-10-10-10-10-10-10\5-5-5-5-5-5-5-5-0-0-0-0-0-0-0-0-----------|

G|-----------------------------------------------------------------------------------|
D|-----------------------------------------------------------------------------------|
A|-----------------------------------------------------------------------------------|
E|-7-7-7-7-7-7-7-7/10-9-10-9-10-9\5--5-5-5-5-5-5-4-0--0-0-0-0-0-0-0-0----------------|

" 'Cos I like you..."
G|-----------------------------------------------------------------------------------|
D|-----------------------------------------------------------------------------------|
A|-----------------------------------------------------------------------------------|
E|-7-7-7-7-7-7-7-7/10-10-10-10-10-10-10-10\5-5-5-5-5-5-5-5/12-12-12-12-12-12-12-12---|
x10 this part a a combination of using either 12 or open, play either when it sounds right

G|-----------------------------------------------------------------------------------|
D|-9-7-------------------------------------------------------------------------------|
A|-----9-----------------------------------------------------------------------------|
E|-------7--7-7-7--------------------------------------------------------------------|
x4 on last one hold 7 until playing another final 7 (fade out again)


| /  slide up
| \  slide down
| h  hammer-on
| p  pull-off
| ~  vibrato
| +  harmonic
| x  Mute note
===============================================================================
comments
print report bad tab
I want to post or [tab]
guest
You may want to rate the tab now too:
select rating
Please do not post tabs as comments. Select "correction" instead!