Oops, an error
Loading. Please wait.

Catcher In The Rye Bass Tab

10 views 1 this week
no commentswrite comment
1 2 3 4 5
3 more votes to show rating
add to favorites
launch autoscroll
font size
0
reset
guitar tuner
Autoscroll
slow
fast
+/-
esc
set tempo
stop
Help us to improve Ultimate-Guitar.com Take our survey!
×
Author
Difficulty
novice
Song: Catcher In The Rye
Album: Distortland
Artist: The Dandy Warhols
Tabbed by: Pini-Glock

Song that catched my eye, if you know what I mean. Very easy to play and still alot of fun! Just make quick up
and down strokes and catch the groove. I use powerchords because they sound better in my opinion

If there is any feedback contact me at my UG page! 

Dandy's rule O.K? Enjoy the song! :) 

Cheers.

Nick 

--------------------------------------------------------------------------------------------------------------

Riff 1 (Verses)


E|--5-5-5-5-5-5-5-5-0-3-3-3-3-----------|
A|-----------------------------3-3-3-3--|
D|--------------------------------------|
G|--------------------------------------|

Riff 2 (Last line verse)

E|-----------------------------3-3-3-3-5-5-5-5-5-5-5-5--|
A|--5-5-5-5-5-5-5-5-0-3-3-3-3---------------------------|
D|------------------------------------------------------|
G|------------------------------------------------------|


Riff 3 (chorus & bridge) 

E|----------5-5-5-5---------3-3-3-3--|
A|--5-5-5-5---------3-3-3-3----------|
D|-----------------------------------|
G|-----------------------------------|

--------------------------------------------------------------------------------------------------------------

Riff 1:
⁠⁠⁠Don't you know anything can get you down if you let it
Riff 1:
Somedays more than others this is how i lived and learned to divide them
Riff 2: 
If you needed a friend I could lend some of my time to remind you

Riff 3: 
Oh you dreamer every little place you go I go, I go
Riff 3:
Oh you dreamer every little place you, I'm with you

Riff 3 x 4

Riff 1: 
Stop look around keep your head down and let the words stop it pass on by you
Riff 1: 
Words that are somewhere >in told are cold< if it's not fun then it's funny to show
Riff 2: 
With my advice like this what else could you want if a body needs a body I know

Riff 3: 
You dreamer every little place you go I go, I go
Riff 3: 
Dreamer every little place you go, I'm with you

Riff 3 x4 

Riff 1: 
I found heaven is a place on earth look around
Riff 1: 
I found heaven is a place on earth look around
Riff 1:
I found heaven is a place on earth look around
Riff 1: 
I found heaven is a place on earth look around

Suggest correction
Give kudos to tab author, rate the tab!
1 2 3 4 5
comments
print report bad tab
guest
You may want to rate the tab now too:
select rating
Wanna post a correction for this tab? Suggest correction