Oops, an error
Loading. Please wait.

Not Your Bottle Tab

855 views 6 this week
no commentswrite comment
1 2 3 4 5
please rate
add to favorites
launch autoscroll
font size
0
reset
how to read this tab
guitar tuner
Tab Pro tools
  • play this tab
  • loop segment
  • change instrument
  • show fretboard
  • metronome
×
Best way to learn
"Not Your Bottle"
Autoscroll
slow
fast
+/-
esc
set tempo
stop
Contributor
Difficulty
advanced
Artist : The Dandy Warhols
Song   : Not Your Bottle  (youtube link : http://youtu.be/MLIkEjOVmro)
Album  : Dandy's Rule OK
Tuning : Standard
Edited by : keithmassacre

The chords are E C A during the whole song

[0:11                                       0:24]
e|---------------------------------------------|
B|-----17--------------------------------------|
G|--16------16---12/14-14----------------------|
D|-----------------------14-17-16-14(?)--11----|
A|-----------------------------------------14--|
E|---------------------------------------------|

[0:47                 1:02]
e|-------------------------|
B|-------------------------|
G|-------------------------|
D|--12/14---12/14----------|
A|----------------14-14----|
E|-------------------------|

[1:10                                                 1:32]
e|-------------------------------------------------------|
B|--5/8-8/10-10--5/8-8/10-10---5/8-8/10-10--12--12-8/10--|
G|-------------------------------------------------------|
D|-------------------------------------------------------|
A|-------------------------------------------------------|
E|-------------------------------------------------------|

[1:35
e|------------------------------------------------------------------|
B|------------------------------------------------------------------|
G|------------------------------------------------------------------|
D|-----------------2--2-2---------------2--2-2----------------------|
A|---------3-3-3-0----------------3---0-------------2-3-2-0---0-----|
E|--0--0-0----------------3-0--0-0---3----------3-0----------3---0--|

                       1:56]
e|-------------------------|
B|-------------------------|
G|-------------------------|
D|-------------------------|
A|-2--2-2/3-2-0---0--------|
E|--------------3---3-0----|

Then there's a solo made by rythm guitar during playing the E C A chords especially 
during the A chord :

[1:59                            2:45]
e|--0--0-0--0-0-0-0----0-----0----|
B|--0--0-0--1-1-0-2--2-----2---0--|
G|--1--1-0--0-0-0-2------2--------|
D|--2--2-0--2-2-0-2---------------|
A|--2--2-0--3-3-0-0---------------|
E|--0--0-0--0-0-0-0---------------|

[3:36                                   3:52]
e|-----------------------------------------|
B|--15/17----------------------------------|
G|----------16--14/16--12--------12/14-----|
D|------------------------12/14--------14--|
A|-----------------------------------------|
E|-----------------------------------------|

Any remarks or comments are welcome.
comments
We did not receive enough feedback on this tab! Please rate:
print report bad tab
1 2 3 4 5
I want to post or [tab]
guest
You may want to rate the tab now too:
select rating
Please do not post tabs as comments. Select "correction" instead!