Oops, an error
Loading. Please wait.

Parachute Tab

431 views 1 this week
no commentswrite comment
1 2 3 4 5
please rate
add to favorites
launch autoscroll
font size
0
reset
how to read this tab
guitar tuner
Autoscroll
slow
fast
+/-
esc
set tempo
stop
Help us to improve Ultimate-Guitar.com Take our survey!
×
Author
Tuning
D A D G B E
Intro/Verse
Guitar 1
e|------------------------|
B|------------------------|
G|-5-----10-------10------|
D|-5-----10-------10------|
A|-3-(x6)-8-(x16)-0-(x8)--|
D|------------------------|

Guitar 2
e|--------------------------------------------------------12--12--12----|
B|-15--15--15----13--13--13--13--13--13--12--13--12--13-----------------|
G|---12--12--12----12--12--12--12--12--12--12--12--12--12---12--12---12-|
D|----------------------------------------------------------------------|
A|----------------------------------------------------------------------|
D|----------------------------------------------------------------------|


Chorus
Guitar 1
e|----------------------------|
B|----------------------------|
G|-5-----10-----10-----5------|
D|-5-----10-----10-----5------|
A|-3-(x6)-8-(x8)-0(x6)-3-(x8)-|
D|---------------------3------|

Guitar 2
e|---------------131313-121212121212121212------------------------|-------|
B|-12-12h13-1313------------------------------12h13------12h13----|-------|
G|---------------------------------------------------12--------12-|-10\9~-|
D|----------------------------------------------------------------|-------|
A|----------------------------------------------------------------|-------|
D|----------------------------------------------------------------|-------|


Bridge
Guitar 1                           In my dismay
e|---------------------------------|---------|
B|---------------------------------|---------|
G|---------5-------5---------------|-5-------|
D|-7-------5-------5-------5-------|-5-------|
A|-7-(x16)-3-(x16)-3-(x16)-5-(x16)-|-3-(x32)-|
D|-7-------3---------------5-------|-3-------|

Guitar 2
 I hold my hands                          Well who am I?
e|--------------------------------------|----------1212-----------------------------------|
B|--------------------------------------|-------------------------------------------------|
G|-9(x16)-5(x9)--10~p9---1313\5h7-7(x8)-|-101010h9------101010h9--5(x16)--101010h9-9(x16)-|
D|--------------------------------------|-------------------------------------------------|
A|--------------------------------------|-------------------------------------------------|
D|--------------------------------------|-------------------------------------------------|

I still harbour        I've been
e|----------------|-------------------------13--13--12--12--12--12--12--12--12--13--13--12--12---|
B|----------------|-13--13--13--13--13--13-------------------------------------------------------|
G|-1313\5h7-7(x8)-|---12--12--12--12--12--12--12--12--12--12--12--12--12--12--12--12--12--12--12-|
D|----------------|------------------------------------------------------------------------------|
A|----------------|------------------------------------------------------------------------------|
D|----------------|------------------------------------------------------------------------------|

                  And somewhere                                  
e|-12--12--12--12--12--12---------------|
B|---------------------------13h15(x8)--|
G|---12--12--12--12--12--12-------------|
D|--------------------------------------|
A|--------------------------------------|
D|--------------------------------------|

                     In my dismay
e|-12--12--12--12--12--12--12--12--13--13--13--13--13--13--13--13---|
B|------------------------------------------------------------------|
G|--12--12--12--12--12--12--12--12--12--12--12--12--12--12--12--12--|
D|------------------------------------------------------------------|
A|------------------------------------------------------------------|
D|------------------------------------------------------------------|

End
Guitar 1
e|------|
B|------|
G|-5~---|
D|-5~---|
A|-3~---|
D|------|

Guitar 2
e|--------|
B|--------|
G|-10\9~--|
D|--------|
A|--------|
D|--------|
Suggest correction
Give kudos to tab author, rate the tab!
1 2 3 4 5
comments
print report bad tab
guest
You may want to rate the tab now too:
select rating
Wanna post a correction for this tab? Suggest correction