Oops, an error
Loading. Please wait.

Surfaced bass

2,353 views 1 this week
1 commentread comment
1 2 3 4 5
3 more votes to show rating
add to favorites
×
Save as Personal and add changes to this tab that will be seen only by you. Learn more ›
×
You can save this tab as Personal to edit and correct it or add notes. All changes will be seen only by you. Learn more »
launch autoscroll
font size
0
reset
guitar tuner
edit
Autoscroll
slow
fast
+/-
esc
set tempo
stop
-----------------------------------------------------------------
SURFACED - THE DANGEROUS SUMMER
-----------------------------------------------------------------
Tabbed by: josh wilson

Email: isthisalladream@live.com

Tuning: DROP D - DADG

this is an awesome song by an awesome band, this tab might not be perfect but dont bite
this is my first. im finally getting accustomed to learning songs by ear but sometimes
hard to hear the bass. my goal is to tab all the bass parts from this album so wish me 
please rate/comment.

Verse 1 (not totally sure about strumming):
G|------------------------------------------------|
D|------------------------------------------------|
A|-4-4-4--444-4-4-4--444--1-1-1--111-1-1-1--111---|    (X2)
D|------------------------------------------------|

G|------------------|
D|------------------|
A|-4\\\1~----1///4--|
D|------------------|

G|-----------------------------------------------------------------------|
D|-----------------------------------------------------------------------|
A|-1-1-1--111-1-1-1--111--4-4-4--444-4-4-4--444--1-1-1--111-1-1-1--111---|
D|-----------------------------------------------------------------------|

Little Prechorus Part:
G|--------------------------------------|
D|--------------------------------------|
A|-6666666666666666---------------------|
D|--------------------4444444444444444--|

Chorus (x2):
G|-------------------------------------------------------------------------|
D|-------------------------------------------------------------------------|
A|-4444444444444444--1111111111111111--------------------------------------|
D|-------------------------------------6666666666666666--4444444444444444--|

Verse 2 (x4):
G|-------------------------------------|
D|-------------------------------------|
A|-4-4-4~---4-4-4~---1-1-1~---1-1-1~---|
D|-------------------------------------|

Pre Chorus Part:
G|-----------------------------------------|
D|-----------------------------------------|
A|-6-6-6~---6-6-6~---6-6-6~---6-6-6~-------|
D|--------------------------------------4--|

Chorus (x2):
G|-------------------------------------------------------------------------|
D|-------------------------------------------------------------------------|
A|-4444444444444444--1111111111111111--------------------------------------|
D|-------------------------------------6666666666666666--4444444444444444--|

Bridge (come in with vocals and drums and play the whole time until chorus i also think
switches to 3/4 time but idk)
G|------------------------------|         |--------|
D|------------------------------|         |--------|
A|-444444-666666-111111111111---| End On: |---4~---|
D|------------------------------|         |--------|

Chorus (x2):
G|-------------------------------------------------------------------------|
D|-------------------------------------------------------------------------|
A|-4444444444444444--1111111111111111--------------------------------------|
D|-------------------------------------6666666666666666--4444444444444444--|

        G|--------|
        D|--------|
End On: A|---4~---|
        D|--------|


| /  slide up
| \  slide down

Thanks! i hope it sounds alright, really easy song hope you have fun.

            
            
Suggest correction
Creating personal tab
Creating personal tab
You can edit any tab online and save it as your Personal.

You can edit, replace or remove any tab part or add personal notes – all changes will be seen only by you.

Personal tabs can be accessed anytime from any device, even offline.
Learn more »
Give kudos to tab author, rate the tab!
1 2 3 4 5
comments
print report bad tab
1 comment total.
0 reply
tlamere 10 Sep 23, 2014 05:03 PM

Not that it totally matters, but this song (like the whole RFTS album) is in half-step down. It can definitely be played either way, but the slides are even easier when in half-step.

guest
You may want to rate the tab now too:
select rating
Wanna post a correction for this tab? Suggest correction