Oops, an error
Loading. Please wait.

Everybody Have A Good Time tab

version 1
version 1

Whole song

Interactive

5,939 views 6 this week
no commentswrite comment
1 2 3 4 5
x 3
add to favorites
×
Save as Personal and add changes to this tab that will be seen only by you. Learn more ›
×
You can save this tab as Personal to edit and correct it or add notes. All changes will be seen only by you. Learn more »
launch autoscroll
font size
0
reset
how to read this tab
guitar tuner
backing track
0:00
0:00
edit
Autoscroll
slow
fast
+/-
esc
set tempo
stop
Author
-----------------------------------------------------------------------------------
                    Everybody Have a Good Time - The Darkness
-----------------------------------------------------------------------------------

Tabbed by: Federico Loreggian
Tuning: E B G D A E 
Maybe there are some mistakes on the solo, feel free to send me a correction.

Intro:

E|------------3------3----|       E|--2-2-3-2---3------3----|
B|--2-2-2-2---3------3----|       B|--3-3-3-3---3------3----|
G|--2-2-2-2---------------|       G|--2-2-2-2---------------| 
D|--2-2-4-2---------------|  X2   D|------------------------|  X2
A|-----------------2---2--|       A|-----------------2---2--|
E|------------3--2--------|       E|------------3--2--------|

"Anticipation, too much to pay, maybe I’m crazy, but there’s something in the air"

E|------------3------3----|------------3------3----|
B|--2-2-2-2---3------3----|--2-2-2-2---3------3----| 
G|--2-2-2-2---------------|--2-2-2-2---------------|
D|--2-2-4-2---------------|--2-2-4-2---------------|
A|-----------------2---2--|-----------------2---2--|
E|------------3--2--------|------------3--2--------|

"There’s something in the air, ah"

E|--2-2-3-2---3------3----|--2-2-3-2---3------3----|
B|--3-3-3-3---3------3----|--3-3-3-3---3------3----|
G|--2-2-2-2---------------|--2-2-2-2---------------|
D|------------------------|------------------------|
A|-----------------2---2--|-----------------2---2--|
E|------------3--2--------|------------3--2--------|

"Come on people tell me how you feel, you want a good time, well you got yourself a deal"

E|------------3------3----|------------3------3----|
B|--2-2-2-2---3------3----|--2-2-2-2---3------3----| 
G|--2-2-2-2---------------|--2-2-2-2---------------|
D|--2-2-4-2---------------|--2-2-4-2---------------|
A|-----------------2---2--|-----------------2---2--|
E|------------3--2--------|------------3--2--------|

"Oh yeah, you got yourself a deal"

E|--2-2-3-2---3------3----|--2-2-3-2---3------3----|
B|--3-3-3-3---3------3----|--3-3-3-3---3------3----|
G|--2-2-2-2---------------|--2-2-2-2---------------|
D|------------------------|------------------------|
A|-----------------2---2--|-----------------2---2--|
E|------------3--2--------|------------3--2--------|

"It’s time to make, a brand new start, take off your thinking, gotta listen to your heart"

E|------------------------------------|
B|--2-------2-------2-------2--2-2-2--|
G|--2-------2-------2-------2--2-2-2--|
D|--2-------4-------5-------2--2-2-2--|
A|------3-4-----3-4-----3-4-----------|
E|------------------------------------|

Chorus: 

E|--3---------3-2----------------------------|--3---------3-2----------------------------|
B|--3---------3-3--2-2-2-2---2-----2-2-2--2--|--3---------3-3--2-2-2-2---2-2-2-2-2-2--2--|
G|--------------2--2-2-2-2---2-----2-2-2--2--|--------------2--2-2-2-2---2-2-2-2-2-2--2--|
D|-----------------2-2-4-2---4-----2-4-2--2--|-----------------2-2-4-2---4-2-2-2-4-2--2--|
A|-----------------------------3-4-----------|-------------------------------------------|
E|--3--2-0-2--3------------------------------|--3--2-0-2--3------------------------------|

E|--2--2--3--3--3--3----------------------------|
B|--3--3--3--3--3--3--2-2-2-2---2-----2-2-2--2--|
G|--2--2--2--2--------2-2-2-2---2-----2-2-2--2--|
D|--------------------2-2-4-2---4-----2-4-2--2--|
A|--------------------------------3-4-----------|
E|--------------3--3----------------------------|

"For tonight.....may be our last, alright"

E|---------------3----------------------|
B|------2--------3-------2---2-2-2-2-2--|
G|------2----------------2---2-2-2-2-2--|
D|------2----------------2---2-2-2-2-2--|
A|--------------------------------------|
E|--3-2----------3----------------------|

"Good thing you’re cool, well I’m mister sure, come on baby, leave your ego at the door"

E|--2--------------3------3----|------------3------3----|
B|--3-2--2-2-2-2---3------3----|--2-2-2-2---3------3----| 
G|--2-2--2-2-2-2---------------|--2-2-2-2---------------|
D|----2--2-2-4-2---------------|--2-2-4-2---------------|
A|----------------------2---2--|-----------------2---2--|
E|-----------------3--2--------|------------3--2--------|

"Cause you don’t need it anymore, whoa"

E|--2-2-3-2---3------3----|--2-2-3-2---3------3----|
B|--3-3-3-3---3------3----|--3-3-3-3---3------3----|
G|--2-2-2-2---------------|--2-2-2-2---------------|
D|------------------------|------------------------|
A|-----------------2---2--|-----------------2---2--|
E|------------3--2--------|------------3--2--------|

"Where is all this fighting getting us? Where is the fire baby, what’s the fuss?"

E|------------------------------------|
B|--2-------2-------2-------2--2-2-2--|
G|--2-------2-------2-------2--2-2-2--|
D|--2-------4-------5-------2--2-2-2--|
A|------3-4-----3-4-----3-4-----------|
E|------------------------------------|

Chorus: 

E|--3---------3-2----------------------------|--3---------3-2----------------------------|
B|--3---------3-3--2-2-2-2---2-----2-2-2--2--|--3---------3-3--2-2-2-2---2-2-2-2-2-2--2--|
G|--------------2--2-2-2-2---2-----2-2-2--2--|--------------2--2-2-2-2---2-2-2-2-2-2--2--|
D|-----------------2-2-4-2---4-----2-4-2--2--|-----------------2-2-4-2---4-2-2-2-4-2--2--|
A|-----------------------------3-4-----------|-------------------------------------------|
E|--3--2-0-2--3------------------------------|--3--2-0-2--3------------------------------|

E|--2--2--3--3--3--3----------------------------|
B|--3--3--3--3--3--3--2-2-2-2---2-----2-2-2--2--|
G|--2--2--2--2--------2-2-2-2---2-----2-2-2--2--|
D|--------------------2-2-4-2---4-----2-4-2--2--|
A|--------------------------------3-4-----------|
E|--------------3--3----------------------------|

"For tonight.....may be our last"

E|---------------3----------------------|
B|------2--------3-------2---2-2-2-2-2--|
G|------2----------------2---2-2-2-2-2--|
D|------2----------------2---2-2-2-2-2--|
A|--------------------------------------|
E|--3-2----------3----------------------|

"Yeah tonight may be our last"

E|---------------3----------------------|
B|------2--------3-------2---2-2-2-2-2--|
G|------2----------------2---2-2-2-2-2--|
D|------2----------------2---2-2-2-2-2--|
A|--------------------------------------|
E|--3-2----------3----------------------|

#1 Guitar Solo:

E|-----------------------------------------------------------------------------------------------------|
B|------------------------------5br-3------------------------------------------------7-8--8--8-7-5---5-|
G|-----------------------2-4b---------4br-2-2--------------------------------2b--\---5-5--5--5-5-5---5-|
D|-----------------2h4-2-------------------------4b-4b-2-4-6--------2---2-2------------------------7---|
A|-------------2-4-------------------------------------------5----5---5--------------------------------|
E|-2b--X-X-3-5-----------------------------------------------------------------------------------------|

E|-----------------------------------------------------------15-14-12------------------|
B|--X-X-X-5-7-8--8--8-7-5------------12b-10----10--------12b----------14-12----12------|
G|--X-X-X-5-5-5--5--5-5-5--7\12-12b---------12----10b-----------------------14----13b--|
D|-------------------------------------------------------------------------------------|
A|-------------------------------------------------------------------------------------|
E|-------------------------------------------------------------------------------------|

"Where fools rush in, where eagles dare, you will find us, it’s already there,
we live the same dream, every night, having a good time till the morning light"

E|------------------------------------|
B|--2-------2-------2-------2--2-2-2--|
G|--2-------2-------2-------2--2-2-2--|
D|--2-------4-------5-------2--2-2-2--|  X2
A|------3-4-----3-4-----3-4-----------|
E|------------------------------------|

Chorus: 

E|--3---------3-2----------------------------|--3---------3-2----------------------------|
B|--3---------3-3--2-2-2-2---2-----2-2-2--2--|--3---------3-3--2-2-2-2---2-2-2-2-2-2--2--|
G|--------------2--2-2-2-2---2-----2-2-2--2--|--------------2--2-2-2-2---2-2-2-2-2-2--2--|
D|-----------------2-2-4-2---4-----2-4-2--2--|-----------------2-2-4-2---4-2-2-2-4-2--2--|
A|-----------------------------3-4-----------|-------------------------------------------|
E|--3--2-0-2--3------------------------------|--3--2-0-2--3------------------------------|

E|--2--2--3--3--3--3----------------------------|
B|--3--3--3--3--3--3--2-2-2-2---2-----2-2-2--2--|
G|--2--2--2--2--------2-2-2-2---2-----2-2-2--2--|
D|--------------------2-2-4-2---4-----2-4-2--2--|
A|--------------------------------3-4-----------|
E|--------------3--3----------------------------|

"For tonight.....may be our last"

E|---------------3----------------------|
B|------2--------3-------2---2-2-2-2-2--|
G|------2----------------2---2-2-2-2-2--|
D|------2----------------2---2-2-2-2-2--|
A|--------------------------------------|
E|--3-2----------3----------------------|

"Yeah tonight may be our last"

E|---------------3----------------------|
B|------2--------3-------2---2-2-2-2-2--|
G|------2----------------2---2-2-2-2-2--|
D|------2----------------2---2-2-2-2-2--|
A|--------------------------------------|
E|--3-2----------3----------------------|

Breakdown

E|----------------------------------|
B|------2-------2--2--X-X--2--X--2--|
G|------2-------2--2--X-X--2--X--2--|
D|------4-------2--2--X-X--2--X--2--|  X7
A|--3-4----3-4----------------------|
E|----------------------------------|

#2 Guitar Solo / Outro: 

E|-----------------------------------------------------------------------------------------------------|
B|------------------------------5br-3------------------------------------------------7-8--8--8-7-5---5-|
G|-----------------------2-4b---------4br-2-2--------------------------------2b--\---5-5--5--5-5-5---5-|
D|-----------------2h4-2-------------------------4b-4b-2-4-6--------2---2-2------------------------7---|
A|-------------2-4-------------------------------------------5----5---5--------------------------------|
E|-2b--X-X-3-5-----------------------------------------------------------------------------------------|

E|-----------------------------|
B|--X-X-X-5-7-8--8--8-7-5---5--|
G|--X-X-X-5-5-5--5--5-5-5---5--|
D|------------------------7----|  X5
A|-----------------------------|
E|-----------------------------|

            
            
Suggest correction
Creating personal tab
Creating personal tab
You can edit any tab online and save it as your Personal.

You can edit, replace or remove any tab part or add personal notes – all changes will be seen only by you.

Personal tabs can be accessed anytime from any device, even offline.
Learn more »
Give kudos to tab author, rate the tab!
1 2 3 4 5
comments
print report bad tab
guest
You may want to rate the tab now too:
select rating
Wanna post a correction for this tab? Suggest correction