Oops, an error
Loading. Please wait.

Get Your Hands Off My Woman Tab

version 1
version 1

Whole song

Interactive

7,745 views 9 this week
3 commentsread comments
1 2 3 4 5
x 9
add to favorites
launch autoscroll
font size
0
reset
how to read this tab
guitar tuner
Autoscroll
slow
fast
+/-
esc
set tempo
stop
Help us to improve Ultimate-Guitar.com Take our survey!
×
-------------------------------------------------------------------------------
               Get Your Hands Off My Woman - The Darkness
-------------------------------------------------------------------------------

Tabbed by: Robbie Cook
Email: cookandhisguitar@msn.com

Tuning: Standard

I've updated these tabs and made them more accurate. Again, any comments, 
suggestions or corrections are very welcome. Also please rate it what you think 
it deserves, it won't take as much effort as I've put in to this.

        
Notation
B = Bend
\ = Slide down
r = Pull off                          
                                     Intro 

                           Let the first 2 chords ring.

e|---1----0------------------------------------------------------------------|
B|---3----3------------------------------------------------------------------|
G|---2----2------------------------------------------------------------------|
D|---0----0------------------------------------------------------------------|
A|---------------------------------------------------------------------------|
E|---------------------------------------------------------------------------|

                  
                                    

e|---------------------------------------------------------------------------|
B|---------------------------------------------------------------------------|
G|---7--7-----------------5--5-----------------------------------------------|
D|---7--7---8--8---3--3---5--5---5--5---3--3---------------------------------|
A|---5--5---8--8---3--3---3--3---5--5---3--3---------------------------------|
E|----------6--6---1--1----------3--3---1--1---------------------------------|

e|---------------------------------------------------------------------------|
B|---------------------------------------------------------------------------|
G|---7--7----------------5--5---5-----5--------------------------------------|
D|---7--7--8--8---3--3---5--5---5--5--5--------------------------------------|
A|---5--5--8--8---3--3---3--3---3--5--3--------------------------------------|
E|---------6--6---1--1-------------3-----------------------------------------|


e|---------------------------------------------------------------------------|
B|---------------------------------------------------------------------------|
G|---7--7-----------------5--5-----------------------------------------------|
D|---7--7---8--8---3--3---5--5---5--5---3--3---------------------------------|
A|---5--5---8--8---3--3---3--3---5--5---3--3---------------------------------|
E|----------6--6---1--1----------3--3---1--1---------------------------------|

e|---------------------------------------------------------------------------|
B|---------------------------------------------------------------------------|
G|---7--7----------------5--5---5--5--5--------------------------------------|
D|---7--7--8--8---3--3---5--5---5--5--5--------------------------------------|
A|---5--5--8--8---3--3---3--3---3--3--3--------------------------------------|
E|---------6--6---1--1-------------------------------------------------------|





                                    Verse  1
 The octave notes arn't played at a constant speed but there is a pattern so 
 listen carefully for it.       

e|---------------------------------------------------------------------------|
B|---------------------------------------------------------------------------|
G|---7--7--7--7--7--7--7--7--7--7--------------------------------------------|
D|----------------------------------3--5-5--3--------------------------------|
A|---5--5--5--5--5--5--5--5--5--5---3--5-5--3--------------------------------|
E|----------------------------------1--3-3--1--------------------------------|

e|---------------------------------------------------------------------------|
B|---------------------------------------------------------------------------|
G|---7--7--7--7--7--7--7--7--7--7--------------------------------------------|
D|----------------------------------3--5-5--3--------------------------------|
A|---5--5--5--5--5--5--5--5--5--5---3--5-5--3--------------------------------|
E|----------------------------------1--3-3--1--------------------------------|





                                     Pre chorus

e|---------------------------------------------------------------------------|
B|---------------------------------------------------------------------------|
G|---------------------------------------------------------------------------|
D|---3--5--5--3--5-----------------------------------------------------------|
A|---3--5--5--3--5-----------------------------------------------------------|
E|---1--3--3--1--3-----------------------------------------------------------|

e|---------------------------------------------------------------------------|
B|---------------------------------------------------------------------------|
G|---------------------------------------------------------------------------|
D|---3--5--5--3--5-----------------------------------------------------------|
A|---3--5--5--3--5-----------------------------------------------------------|
E|---1--3--3--1--3-----------------------------------------------------------|


You've got to listen carefully for this bit, it's right before the chorus where
Justin starts shouting "you cuuuuuunnnt!"

e|---2--2--2--2--2-----------------------------------------------------------|
B|---3--3--3--3--3-----------------------------------------------------------|
G|---2--2--2--2--2-----------------------------------------------------------|
D|---0--0--0--0--0-----------------------------------------------------------|
A|---------------------------------------------------------------------------|
E|-------------------14\-----------------------------------------------------|


e|---------------------------------------------------------------------------|
B|---------------------------------------------------------------------------|
G|---------------------------------------------------------------------------|
D|---2--3--4--5--6--7--8--9--11----------------------------------------------|
A|---2--3--4--5--6--7--8--9--11----------------------------------------------|
E|---0--1--2--3--4--5--6--7--9-----------------------------------------------|



                                  Chorus


e|---------------------------------------------------------------------------|
B|---------------------------------------------------------------------------|
G|---7--7-----------------5--5-----------------------------------------------|
D|---7--7---8--8---3--3---5--5---5--5---3--3---------------------------------|
A|---5--5---8--8---3--3---3--3---5--5---3--3---------------------------------|
E|----------6--6---1--1----------3--3---1--1---------------------------------|

e|---------------------------------------------------------------------------|
B|---------------------------------------------------------------------------|
G|---7--7----------------5--5---5-----5--------------------------------------|
D|---7--7--8--8---3--3---5--5---5--5--5--------------------------------------|
A|---5--5--8--8---3--3---3--3---3--5--3--------------------------------------|
E|---------6--6---1--1-------------3-----------------------------------------|


e|---------------------------------------------------------------------------|
B|---------------------------------------------------------------------------|
G|---7--7-----------------5--5-----------------------------------------------|
D|---7--7---8--8---3--3---5--5---5--5---3--3---------------------------------|
A|---5--5---8--8---3--3---3--3---5--5---3--3---------------------------------|
E|----------6--6---1--1----------3--3---1--1---------------------------------|

e|---------------------------------------------------------------------------|
B|---------------------------------------------------------------------------|
G|---7--7----------------5--5---5--5--5--------------------------------------|
D|---7--7--8--8---3--3---5--5---5--5--5--------------------------------------|
A|---5--5--8--8---3--3---3--3---3--3--3--------------------------------------|
E|---------6--6---1--1-------------------------------------------------------|



                                   
                                 Verse 2 
                Has a variation to it compared to verse 1


e|---------------------------------------------------------------------------|
B|---------------------------------------------------------------------------|
G|---7--7--7--7--7--7--7--7--7--7---10--12--12--10---------------------------|
D|----------------------------------10--12--12--10---------------------------|
A|---5--5--5--5--5--5--5--5--5--5---8---10--10--8----------------------------|
E|---------------------------------------------------------------------------|


The 6th, 7th and 8th notes are quick to follow each other on the first
line of powerchords below so an extra D5 powerchord is added so listen closely.
Also use light and I mean LIGHT, palm muting for the D5 powerchords.

e|---------------------------------------------------------------------------|
B|---------------------------------------------------------------------------|
G|---7--7--7--7--7--7--7--7--7--7--7----10--12--12--10-----------------------|
D|---7--7--7--7--7--7--7--7--7--7--7----10--12--12--10-----------------------|
A|---5--5--5--5--5--5--5--5--5--5--5----8---10--10--8------------------------|
E|---------------------------------------------------------------------------|


e|---------------------------------------------------------------------------|
B|---------------------------------------------------------------------------|
G|---7--7--7--7--7--7--7--7--7--7-------10--12--12--10-----------------------|
D|---7--7--7--7--7--7--7--7--7--7-------10--12--12--10-----------------------|
A|---5--5--5--5--5--5--5--5--5--5-------8---10--10--8------------------------|
E|---------------------------------------------------------------------------|



                              Pre chorus 2
                    A very slight variation to the first.

e|---------------------------------------------------------------------------|
B|---------------------------------------------------------------------------|
G|---------------------------------------------------------------------------|
D|---5--5--3--5--------------------------------------------------------------|
A|---5--5--3--5--------------------------------------------------------------|
E|---3--3--1--3--------------------------------------------------------------|

e|---------------------------------------------------------------------------|
B|---------------------------------------------------------------------------|
G|---------------------------------------------------------------------------|
D|---3--5--5--3--5-----------------------------------------------------------|
A|---3--5--5--3--5-----------------------------------------------------------|
E|---1--3--3--1--3-----------------------------------------------------------|

e|---2--2--2--2--2-----------------------------------------------------------|
B|---3--3--3--3--3-----------------------------------------------------------|
G|---2--2--2--2--2-----------------------------------------------------------|
D|---0--0--0--0--0-----------------------------------------------------------|
A|---------------------------------------------------------------------------|
E|-------------------14\-----------------------------------------------------|

e|---------------------------------------------------------------------------|
B|---------------------------------------------------------------------------|
G|---------------------------------------------------------------------------|
D|---2--3--4--5--6--7--8--9--11----------------------------------------------|
A|---2--3--4--5--6--7--8--9--11----------------------------------------------|
E|---0--1--2--3--4--5--6--7--9-----------------------------------------------|




                                  Chorus 2

e|---------------------------------------------------------------------------|
B|---------------------------------------------------------------------------|
G|---7--7-----------------5--5-----------------------------------------------|
D|---7--7---8--8---3--3---5--5---5--5---3--3---------------------------------|
A|---5--5---8--8---3--3---3--3---5--5---3--3---------------------------------|
E|----------6--6---1--1----------3--3---1--1---------------------------------|

e|---------------------------------------------------------------------------|
B|---------------------------------------------------------------------------|
G|---7--7----------------5--5---5-----5--------------------------------------|
D|---7--7--8--8---3--3---5--5---5--5--5--------------------------------------|
A|---5--5--8--8---3--3---3--3---3--5--3--------------------------------------|
E|---------6--6---1--1-------------3-----------------------------------------|


e|---------------------------------------------------------------------------|
B|---------------------------------------------------------------------------|
G|---7--7-----------------5--5-----------------------------------------------|
D|---7--7---8--8---3--3---5--5---5--5---3--3---------------------------------|
A|---5--5---8--8---3--3---3--3---5--5---3--3---------------------------------|
E|----------6--6---1--1----------3--3---1--1---------------------------------|

e|---------------------------------------------------------------------------|
B|---------------------------------------------------------------------------|
G|---7--7----------------5--5---5--5--5--------------------------------------|
D|---7--7--8--8---3--3---5--5---5--5--5--------------------------------------|
A|---5--5--8--8---3--3---3--3---3--3--3--------------------------------------|
E|---------6--6---1--1-------------------------------------------------------|




                                  Bridge

e|---1-----------------------------------------------------------------------|
B|---3-----------------------------------------------------------------------|
G|---2-----------------------------------------------------------------------|
D|---0-----------------------------------------------------------------------|
A|---------------------------------------------------------------------------|
E|---------------------------------------------------------------------------|


This next bit is a unison bend which uses the same effect as the intro, bend 
the G up the the A (the 8th up to the tenth note) on the B string and keep 
slowly letting it back again.


e|---5-----------------------------------------------------------------------|
B|---8B10--------------------------------------------------------------------|
G|---------------------------------------------------------------------------|
D|---------------------------------------------------------------------------|
A|---------------------------------------------------------------------------|
E|---------------------------------------------------------------------------|



                                  Solo 

e|---------------------------------------------------------------------------|
B|---------------------------------------------------------------------------|
G|---3r0-----3r0--3r0-----3r0--3r0-----3r0-----3r0--3r0-----3r0--3r0---------|
D|--------0------------0------------0-------0------------0------------0------|
A|---------------------------------------------------------------------------|
E|---------------------------------------------------------------------------|

e|---------------------------------------------------------------------------|
B|---------------------------------------------------------------------------|
G|---4r0-----4r0--4r0-----4r0--4r0-----4r0-----4r0--4r0-----4r0--4r0---------|
D|--------0------------0------------0-------0------------0------------0------|
A|---------------------------------------------------------------------------|
E|---------------------------------------------------------------------------|

unison bends
e|------------3--------------------------------------------------------------|
B|---3-----3-----3---------------3-------------------------------------------|
G|---5B7------------5---3---5----5B7-----------------------------------------|
D|---------------------------------------------------------------------------|
A|---------------------------------------------------------------------------|
E|---------------------------------------------------------------------------|

e|---------------------------------------------------------------------------|
B|---5-----6------7------8-------9-----------10--12--13---15-----------------|
G|---7B9---8B10---9B11---10B12---11B13---12---------------17B19--------------|
D|---------------------------------------------------------------------------|
A|---------------------------------------------------------------------------|
E|---------------------------------------------------------------------------|



                          Final Chorus and Outro

e|---------------------------------------------------------------------------|
B|---------------------------------------------------------------------------|
G|---7--7-----------------5--5-----------------------------------------------|
D|---7--7---8--8---3--3---5--5---5--5---3--3---------------------------------|
A|---5--5---8--8---3--3---3--3---5--5---3--3---------------------------------|
E|----------6--6---1--1----------3--3---1--1---------------------------------|

e|---------------------------------------------------------------------------|
B|---------------------------------------------------------------------------|
G|---7--7----------------5--5---5-----5--------------------------------------|
D|---7--7--8--8---3--3---5--5---5--5--5--------------------------------------|
A|---5--5--8--8---3--3---3--3---3--5--3--------------------------------------|
E|---------6--6---1--1-------------3-----------------------------------------|

e|---------------------------------------------------------------------------|
B|---------------------------------------------------------------------------|
G|---7--7-----------------5--5-----------------------------------------------|
D|---7--7---8--8---3--3---5--5---5--5---3--3---------------------------------|
A|---5--5---8--8---3--3---3--3---5--5---3--3---------------------------------|
E|----------6--6---1--1----------3--3---1--1---------------------------------|

e|---------------------------------------------------------------------------|
B|---------------------------------------------------------------------------|
G|---7--7----------------5--5---5--5--5--------------------------------------|
D|---7--7--8--8---3--3---5--5---5--5--5--------------------------------------|
A|---5--5--8--8---3--3---3--3---3--3--3--------------------------------------|
E|---------6--6---1--1-------------------------------------------------------|



e|---------------------------------------------------------------------------|
B|---------------------------------------------------------------------------|
G|---7--7-----------------5--5-----------------------------------------------|
D|---7--7---8--8---3--3---5--5---5--5---3--3---------------------------------|
A|---5--5---8--8---3--3---3--3---5--5---3--3---------------------------------|
E|----------6--6---1--1----------3--3---1--1---------------------------------|

e|---------------------------------------------------------------------------|
B|---------------------------------------------------------------------------|
G|---7--7----------------5--5---5-----5--------------------------------------|
D|---7--7--8--8---3--3---5--5---5--5--5--------------------------------------|
A|---5--5--8--8---3--3---3--3---3--5--3--------------------------------------|
E|---------6--6---1--1-------------3-----------------------------------------|

e|---------------------------------------------------------------------------|
B|---------------------------------------------------------------------------|
G|---7--7-----------------5--5-----------------------------------------------|
D|---7--7---8--8---3--3---5--5---5\------------------------------------------|
A|---5--5---8--8---3--3---3--3---5\------------------------------------------|
E|----------6--6---1--1----------3\------------------------------------------|
Suggest correction
comments
print report bad tab
3 comments total.
0 reply
les_Paul_god 10 Sep 14, 2003 12:00 AM

the second line of the intro/chorus is wrong its:

-7-7---------55-5-0-5-6
-7-7-8-8-3-3-55-5-0-5-6
-5-5-8-8-3-3-33-3-0-3-4
-----6-6-1-1

0 reply
paulson 515 Jan 15, 2004 12:00 AM

01/15/2004] by paulson:
hey guys if u want i have a darkness tab book so if u want a correct tab email me and ill send u the song (if thats cool) ps not bad lol
aint_life_a_bitc_h@hotmail.com

0 reply
Rocks Saviour 120 Jan 22, 2005 12:00 AM

OK it's all updated now and I'm pretty sure they're almost spot on.

guest
You may want to rate the tab now too:
select rating
Wanna post a correction for this tab? Suggest correction