Oops, an error
Loading. Please wait.

Givin Up tab

version 3
version 3

Whole song

Interactive

18,809 views 18 this week
5 commentsread comments
1 2 3 4 5
x 6
add to favorites
×
Save as Personal and add changes to this tab that will be seen only by you. Learn more ›
×
You can save this tab as Personal to edit and correct it or add notes. All changes will be seen only by you. Learn more »
launch autoscroll
font size
0
reset
how to read this tab
guitar tuner
edit
Autoscroll
slow
fast
+/-
esc
set tempo
stop
intro/verse riff 1
guitar 1
e|-------------|           e|-------------------------|
b|--5-7--7-5-4-|           b|-5-7--7-5-5-5--4---------|
g|--4-4--4-4-4-|           g|-4-4--4-4-4-4--4-----3-4-|
d|--6-4--4-6-4-| x2        d|-6-4--4-6-6-6--4-4-4-3-4-| <--play this
a|-------------|           a|-----------------4-4-1-2-|    the third time
E|-------------|           E|-----------------2-2-----|
my momma wants...                     nag nag nag...


bridge

e|-------------------|
b|-------------------|
g|-4-------------3-4-|
d|-4-4-6-4-6-4-6-3-4-|
a|-2-4-6-4-6-4-6-1-2-|
E|---2-4-2-4-2-4-----|

pre chorus->>>>>>>>>>>>>>>>>>>>>>>>>>>>>>>>>>>>>>>>>>>>>>>>>>>>>>>>>>>

e|-2-2-2--2--2--2-2-2-4-2-2-|     e|-4-4-2-2-0-----------4-4-2-2-0-0-0-0-2-2-|
b|-2-2-2--2--2--2-2-2-5-4-4-|     b|-5-5-4-4-2-4-0-0-0---5-5-4-4-2-2-2-0-4-4-|
g|-3-3-3--3--3--3-3-3-------| x2  g|-----------4-1-1-1-----------------------|
d|-4-4-4--4--4--4-4-4-------|     d|-----------------------------------------|
a|-4-4-4--4--4--4-4-4-------|     a|-----------------------------------------|
E|-2-2-2--2--2--2-2-2-------|     E|-----------------------------------------|
well ive ruined...                   arms...

chorus
e|--------------------------------------------|
b|----------------------5-7-7-5-5-5-4---------|
g|-4--4-4-4-4-4-4-4-4-4-4-4-4-4-4-4-4-----3-4-|
d|-4--4-4-4-4-4-4-4-4-4-6-4-4-6-6-6-4-4-4-3-4-| x2
a|-2--2-2-2-2-2-2-2-2-2---------------4-4-1-2-|
E|------------------------------------2-2-----|
oh oh oh oh oh oh oh   givin up...

bridge bit (as above)

verse 2

e|---------------------------------------------------|
b|-7-7-7-7-7--7--9-9-9-7--7-7-7-7-7-7--7-7-7--7-7-7-7|
g|-8-8-8-8-6--6--9-9-9-8--8-8-8-8-8-8--8-8-8--6-6-6-8|
d|-9-9-9-9-8--8--6-6-6-9--9-9-9-9-9-9--9-9-9--8-8-8-9| x2
a|---------------------------------------------------|
E|---------------------------------------------------|
gettin of ma face...

---
pre chorus
---
chorus/bridge
---

e|-------------|
b|-------------|
g|-4-4-4-4-4-4-|
d|-4-4-4-4-4-4-| repeat this chord before the solo
a|-2-2-2-2-2-2-|


solo
intro type bit b4 solo starts
e|-444---666---777---999---------11-11-11-|
b|-555---777---888---101010

            
            
Suggest correction
Creating personal tab
Creating personal tab
You can edit any tab online and save it as your Personal.

You can edit, replace or remove any tab part or add personal notes – all changes will be seen only by you.

Personal tabs can be accessed anytime from any device, even offline.
Learn more »
comments
print report bad tab
5 comments total. Showing first comments.
0 reply
Les Paul Lover 77 Jan 11, 2007 10:38 PM

Oh mother****er! I tabbed the full solo but it got cut off! WTF? i have to tab it seperately now! bastards!

-1 reply
Les Paul Lover 77 Jan 11, 2007 10:40 PM

oh btw it woz me who tabbed it. it jst sez unregistered coz i cnt have been signed in lol

-1 reply
Les Paul Lover 77 Jan 11, 2007 10:45 PM

tell u wot. ill tab the solo separately :-)

guest
Wanna post a correction for this tab? Suggest correction