Oops, an error
Loading. Please wait.

I Believe In A Thing Called Love Tab

626,088 views 645 this week
112 commentsread comments
1 2 3 4 5
x 264
add to favorites
launch autoscroll
font size
0
reset
how to read this tab
guitar tuner
Autoscroll
slow
fast
+/-
esc
set tempo
stop
Help us to improve Ultimate-Guitar.com Take our survey!
×
[Intro]

  F# A   B        A E B   A
e|-------------------------------------------|
B|-------------------------------------------|
G|----2-2-4-4--4-4-2---4-4-2-2---------------|
D|--4-2-2-4-4--4-4-2-2-4-4-2-2---------------|
A|--4-0-0-2-2--2-2-0-2-2-2-0-0----0-2-4------|
E|--2----------------0----------4-------0----|  X2

  F# A   B        A E B   A
e|-------------------------------------------|
B|-------------------------------------------|
G|----2-2-4-4--4-4-2---4-4-2-2---------------|
D|--4-2-2-4-4--4-4-2-2-4-4-2-2---------------|
A|--4-0-0-2-2--2-2-0-2-2-2-0-0----0-2-4------|
E|--2----------------0----------4-------0----|


[Verse]

Can't explain all the feelings that you're making me feel
My hearts on overdrive and you're behind the steering wheel

    E     F#m   p.m
e|--0-0---2------------------------|
B|--0-0---2------------------------|
G|--1-1---2------------------------|
D|--2-2---4-4-4-4-4-4-4-4-4-4-4----|
A|--2-2---4-4-4-4-4-4-4-4-4-4-4----|
E|--0-0---2-2-2-2-2-2-2-2-2-2-2----|


[Chorus]

Touching you
Touching me

    E  F#m A A# B      p.m
e|--0-0--2-----------------------------|
B|--0-0--2-----------------------------|
G|--1-1--2-2-3--4-4-4-4-4-4-4-4-4-4----|
D|--2-2--4-2-3--4-4-4-4-4-4-4-4-4-4----|
A|--2-2--4-0-1--2-2-2-2-2-2-2-2-2-2----|
E|--0-0--2-----------------------------|

Touching you, god you're touching me


   E F#G#A G#F# F#G#E B C#B 
e|------------------------------|
B|------------------------------|
G|-------------------2-4-6-4----|
D|--2-4-6-7-6-4--4-6-2-4-6-4----|
A|--2-4-6-7-6-4--4-6-0-2-4-2----|
E|--0-2-4-5-4-2--2-4------------|

I believe in a thing called love
Just listen to the rhythum of my heart
We'll be rocking 'till the sun goes down
I believe in a thing called love


   C#  B C#D
e|---------------|
B|---------------|
G|--6---4-6-7----|
D|--6---4-6-7----|
A|--4---2-4-5----|
E|---------------|

     
[Solo]

 (bend and hold, then release)                   
e|--9----12------12------|
B|--12^------12------12--|
G|-----------------------|  
D|-----------------------|  
A|-----------------------| 
E|-----------------------|  

              (half)    (slow bend)
e|-16^16---------------------------|
B|-------17-------------------15^--|
G|----------16---------------------|
D|--------------18^18--14----------|
A|---------------------------------|
E|---------------------------------|


[Verse]

I wanna kiss you every minute, every hour, every day
You got me in a spin but everything is a.o.k!

    E     F#m   p.m
e|--0-0---2------------------------|
B|--0-0---2------------------------|
G|--1-1---2------------------------|
D|--2-2---4-4-4-4-4-4-4-4-4-4-4----|
A|--2-2---4-4-4-4-4-4-4-4-4-4-4----|
E|--0-0---2-2-2-2-2-2-2-2-2-2-2----|


[Chorus]

Touching you
Touching me

    E  F#m A A# B      p.m
e|--0-0--2-----------------------------|
B|--0-0--2-----------------------------|
G|--1-1--2-2-3--4-4-4-4-4-4-4-4-4-4----|
D|--2-2--4-2-3--4-4-4-4-4-4-4-4-4-4----|
A|--2-2--4-0-1--2-2-2-2-2-2-2-2-2-2----|
E|--0-0--2-----------------------------|

Touching you, god you're touching me


   E F#G#A G#F# F#G#E B C#B 
e|------------------------------|
B|------------------------------|
G|-------------------2-4-6-4----|
D|--2-4-6-7-6-4--4-6-2-4-6-4----|
A|--2-4-6-7-6-4--4-6-0-2-4-2----|
E|--0-2-4-5-4-2--2-4------------|

I believe in a thing called love
Just listen to the rhythum of my heart
We'll be rocking 'till the sun goes down
I believe in a thing called love


[Solo]

e|-0-0-0-0---7--7-------------------------|
B|-5--5-5--7^-7^-7^--5h7-5--4h5-2-0-------|  
G|----------------------------------1-2-4-|  
D|----------------------------------------|  
A|----------------------------------------|  
E|----------------------------------------|  

e|---------------------------------|
B|---------------------------------|  
G|---------------------------------|  
D|--4/6-6-6-4-2---2/4-4-4-6-4-2-2--|  
A|--------------4------------------|  
E|---------------------------------|  

e|--0-------0----------------|
B|----0-3/5---0--------------|
G|--------------1-1-1-2-4-4--|
D|---------------------------|
A|---------------------------|
E|---------------------------|

  (bend & hold)(bend   &     hold)    
e|-------------------9------9-------|
B|-10---10--10----9----9------9-----|
G|-12^--12^-12^--11^-----11-----11--|
D|----------------------------------|
A|----------------------------------|
E|----------------------------------|
     
e|-9p7--------------------------------------|
B|-------9p7-9p7----------------------------|
G|---------------11p9--11p9----9-----9------|
D|--------------------------11---15^---14---|
A|------------------------------------------|
E|------------------------------------------|

e|----------------0----0----0--0-0-0-0-0-0-----|
B|------------------5----0--5--5-5-7-9-9-7-----|
G|----------4---------4-----4--4-4-6-8-8-6-----|
D|--4/6-6-6---6-4-----------2------------------|
A|---------------------------------------------|
E|---------------------------------------------|

E       F#
Touching you...

(Reggae bit over chorus)

e|--------------------------|
B|----------9--9--9--9--7---|
G|--9--8--6-9--9--9--9--9---|
D|--9--9--9-----------------|
A|--------------------------|
E|--------------------------|


[Solo]
               
e|------------15p12-------------|
B|--15^15-15^-------15p12-15p12-|  
G|------------------------------|  
D|------------------------------|  
A|------------------------------|  
E|------------------------------|  
               
e|----------------------------------|
B|----------------------------------|
G|-14^12-----------12^----------12^-|
D|--------14p12-14-----14p12-14-----|
A|----------------------------------|
E|----------------------------------|
                                               
e|---------------------------------------|
B|---------------------------------------|  
G|--------------------------------13--14-|  
D|-12p14---------------------------------|  
A|-------12p14-10p12----10---------------|  
E|-------------------12----12p10---------|  
                                                   
e|------------------------------------|
B|-------------------16--16-17-19-16--|
G|-16-18-16-18-16-18---18-------------|
D|------------------------------------|
A|------------------------------------|
E|------------------------------------|
                
e|-16-17-19-16-17-22^-|
B|--------------------|
G|--------------------|
D|--------------------|
A|--------------------|
E|--------------------|


[Outro]

    E  F#m A A# B      p.m
e|--0-0--2-----------------------------|
B|--0-0--2-----------------------------|
G|--1-1--2-2-3--4-4-4-4-4-4-4-4-4-4----|
D|--2-2--4-2-3--4-4-4-4-4-4-4-4-4-4----|
A|--2-2--4-0-1--2-2-2-2-2-2-2-2-2-2----|
E|--0-0--2-----------------------------|

   E F#G#A G#F# F#G#E B C#B 
e|------------------------------|
B|------------------------------|
G|-------------------2-4-6-4----|
D|--2-4-6-7-6-4--4-6-2-4-6-4----|
A|--2-4-6-7-6-4--4-6-0-2-4-2----|
E|--0-2-4-5-4-2--2-4------------|

(repeat to end)



************************************

| h  Hammer-on
| p  Pull-off
| /  Slide up
| ^  Bend

************************************
Suggest correction
comments
print report bad tab
112 comments total. Showing first comments.
+1 reply
jimmypage2 120 Jul 21, 2003 12:00 AM

awesome tab

0 reply
superfrood2000 50 Aug 18, 2003 12:00 AM

this is well good, but in the chorus it's just single notes (or at least that's how he played it live) and the full sound comes from dan's super heavy gauge strings

+1 reply
TheVinesRule 860 Sep 14, 2003 12:00 AM

i agree with superfrood2000. and its a great tab, and a fantastic song from a kickass band :D

guest
You may want to rate the tab now too:
select rating
Wanna post a correction for this tab? Suggest correction