Oops, an error
Loading. Please wait.
We have an official I Believe In A Thing Called Love tab made by UG professional guitarists. Check out the tab »
×
1,584 views 3 this week
no commentswrite comment
1 2 3 4 5
1 last vote to show rating
add to favorites
×
Save as Personal and add changes to this tab that will be seen only by you. Learn more ›
×
You can save this tab as Personal to edit and correct it or add notes. All changes will be seen only by you. Learn more »
launch autoscroll
font size
0
reset
guitar tuner
backing track
0:00
0:00
edit
Autoscroll
slow
fast
+/-
esc
set tempo
stop
Author
Difficulty
-------------------------------------------------------------------------------
            I Believe in a Thing Called Love - The Darkness
-------------------------------------------------------------------------------
Tabbed by: Conor Broughton
E-mail: Conorcool@aol.com

This is the proper Tab for I Believe in a Thing Called Love. The others were 
slightly off, but I believe that this is correct. Listen to the recording for timings ect. :D 

Tuning: Standard

Intro/Verse 1:
G|--------------------------------------|    
D|--------------------------------------| X2
A|----0-2-2--2-2-0----2-2-0-0---0-------|
E|-2---------------0----------4---4-2-0-|

G|--------------------------------------|
D|--------------------------------------|
A|----0-2-2--2-2-0----2-2-0-0---0-------|
E|-2---------------0----------4---4-2-0-|

Pre Chorus:
G|-------------------------------------------------------------------------------------------------|
D|-------------------------------------------------------------------------------------------------|
A|-----------------------------------------------------7-7-9--9-9--0--0-1-1--2-2-2-2-2-2-/14-14-14-|
E|-0-0-0-2--2-2-2--2-2-2--2--0-0-0-2--2-2-2--2-2-2--2---7------------------------------------------|

Chorus:
G|----------------------------[    ]---------------|
D|----------------------------[ X3 ]-7-7-7-5-7-8---| It sound more to the recording
A|--------0---------0-2-4-2---[    ]-5-5-5-3-5-6---| if you use these chords, but if
E|--0-2-4---4-0-2-4-----------[    ]---------------| you want you can just do the A 
                                                     string notes
Pre Verse 2:
G|---------------------------------------------------------------------------|
D|---------------------------------------------------------------------------|
A|---0-2-2--2-2/-7-7\-2-2-0-0---0-2-4----------------------------------------|
E|-2--------------------------4-------0--------------------------------------|

Verse 2:
G|---------------------------------------------------------------------------|
D|---------------------------------------------------------------------------|
A|-----------0-0-2-2-2-2-2-2-2-2-2-------2-2-2-2-2-0-0-0-----0-2-4-----------|
E|-2-2-2-2-2-----------------------0-0-0-----------------4-4-------0---------|

G|---------------------------------------------------------------------------|
D|---------------------------------------------------------------------------|
A|-----------0-0-2-2-2-2-2-2-2-2-2-------2-2-2-2-2-0-0-0-----0---------------|
E|-2-2-2-2-2-----------------------0-0-0-----------------4-4---4-2-0---------|

Pre Chorus: See Above

Chorus: See Above

Solo:
G|----------------------------------------|
D|----------------------------------------|
A|---0-2-2--2-2/-7-7\-2-2-0-0---0-2-4-----| X2
E|-2--------------------------4-------0---|

G|-----------------------------------------------------------------------------|
D|-----------------------------------------------------------------------------|
A|-----------0-0-2-2-2-2-2-2-2-2-2/-7-7-7\-2-2-2-2-2-0-0-0-----0-2-4-----------|
E|-2-2-2-2-2-----------------------------------------------4-4-------0---------|

G|-----------------------------------------------------------------------------|
D|-----------------------------------------------------------------------------|
A|-----------0-0-2-2-2-2-2-2-2-2-2/-7-7-7\-2-2-2-2-2-0-0-0-----0---------------|
E|-2-2-2-2-2-----------------------------------------------4-4---4-2-0---------|

G|-------------------------------------------------------------------------------------------------|
D|-------------------------------------------------------------------------------------------------|
A|-----------------------------------------------------7-7-9--9-9--0--0-1-1--2-2-2-2-2-2-/14-14-14-|
E|-0-0-0-2--2-2-2--2-2-2--2--0-0-0-2--2-2-2--2-2-2--2---7------------------------------------------|

Bridge: Silent 

Outro:
G|------------------------------------------|
D|-7-7-7-5-7-8------------------------------| 
A|-5-5-5-3-5-6------------------------------| 
E|------------------------------------------|

Chorus:
G|----------------------------|    
D|----------------------------| Repeat until ending tremolo: 
A|--------0---------0-2-4-2---|    
E|--0-2-4---4-0-2-4-----------| 

G|---------------------------------------------------------------------------|
D|---------------------------------------------------------------------------|
A|---------------------------------------------------------------------------|
E|-0000000000000000000000000000000000000000000000000000---12/------0---------|
   Pick this as fast as you can! String-breaking speed
   is what we're looking for! :D

| /  slide up
| \  slide down
| h  hammer-on
| p  pull-off
| ~  vibrato
| +  harmonic
| x  Mute note

            
            
Suggest correction
Creating personal tab
Creating personal tab
You can edit any tab online and save it as your Personal.

You can edit, replace or remove any tab part or add personal notes – all changes will be seen only by you.

Personal tabs can be accessed anytime from any device, even offline.
Learn more »
Give kudos to tab author, rate the tab!
1 2 3 4 5
comments
print report bad tab
guest
You may want to rate the tab now too:
select rating
Wanna post a correction for this tab? Suggest correction