Oops, an error
Loading. Please wait.

I Love You Five Times Tab

version 1
version 1

Whole song

Interactive

1,090 views 3 this week
no commentswrite comment
1 2 3 4 5
x 7
add to favorites
launch autoscroll
font size
0
reset
how to read this tab
guitar tuner
×
Best way to learn
"I Love You Five Times"
Autoscroll
slow
fast
+/-
esc
set tempo
stop
This is great song!! and the darkness rock!!!!
if u hav any probs e-mail me at in_your_world@hotmail.co.uk my old e-mails
rhcp_3454@hotmail.com but i like neva use it!

The darkness
I love you 5 times
Christmas time single

/-Slide down
\Slide up
^Bend
% Legato Slide

Intro&Verse:

-----------5-----------------6-----------------7-----------------7---------|
--------7-----7-----------7-----7-----------7-----7-----------7-----7------|
-----7-----------7-----7-----------7-----7-----------7-----7-----------7---|
--0-----------------8-----------------9-----------------9-----------------7|
---------------------------------------------------------------------------|
---------------------------------------------------------------------------|

-----------5-----------------6--------|
--------7-----7-----------7-----7-----|
-----7-----------7-----7-----------7--|
--0-----------------8-----------------|
--------------------------------------|
--------------------------------------|

I wink at you...
-----------7-----------------7-----------|
--------7-----7-----------7-----7--------|
-----7-----------7-----7-----------7-----|
8/9-----------------9-----------------7--|
-----------------------------------------|
-----------------------------------------|

-----------7-----------------7--------|
--------------7-----------------7-----|
--------7--------7--------7--------7--|
-----9-----------------9--------------|
--7-----------------7-----------------|
--------------------------------------|

-----------3----------------5--------|
--------3-----3----------5-----5-----|
-----4-----------4%6--6-----------6--|
-------------------------------------|
--0----------------0-----------------|
-------------------------------------|

Watch as you...
-------------9---------------------9----------|
---------10-----10-------------10-----10------|
-----11-------------11-----11-------------11--|
--0---------------------0---------------------|
----------------------------------------------|
----------------------------------------------|

----------7-----------------7--------|
-------7-----7-----------7-----7-----|
----7-----------7-----7-----------7--|
-9-----------------9-----------------|
-------------------------------------|
-------------------------------------|

So like a tuna ahhhhh
-----------7-----------------7-----------|
--------------7-----------------7--------|
--------7--------7--------7--------7-----|
-----9-----------------9--------------7--|
--7-----------------7--------------------|
-----------------------------------------|

-----------3----------------5--------|
--------3-----3----------5-----5-----|
-----4-----------4%6--6-----------6--|
-------------------------------------|
--0----------------0-----------------|
-------------------------------------|

Chorus:

One times....I love you
-----------2-----------------2-------|----------2------------------2-------|
--------2-----2-----------2--------2-|----------------3------------------0-|
-----2-----------2-----2--------2----|-------2-----2------------------0----|
--0----------------------------------|----0---------------------2----------|
--------------------2----------------|-----------------------2-------------|
-------------------------------------|-3-----------------0-----------------|

Two times....I love you
-----------2-----------------2-------|----------2-----------------2--------|
--------2--------2--------2--------2-|-3--------------3-----------------0--|
-----2--------2--------2--------2----|-------2-----2-----------------0-----|
--0-----------------1----------------|----0--------------------2-----------|
-------------------------------------|----------------------2--------------|
-------------------------------------|-3-----------------0-----------------|

Three times,four times....
-----------2-----------------2-------|----------3-----------------3--------|
--------2--------2--------2--------2-|-------------0-----------------0-----|
-----2--------2--------2--------2----|-------0--------0-----------------0--|
--0-----------------1----------------|----0--------------------2-----------|
-------------------------------------|----------------------2--------------|
-------------------------------------|-3-----------------0-----------------|

I love you oooooooh oooooohhhh....
-----------2-----------------2------|-3--------7-||-3-------7--|
--------2-----2-----------2-----2---|-3--------8-||-3-------8--|
-----2-----------2-----2-----------2|-4-----4--9-||-4----4--9--|
--0---------------------------------|-5--5-----9-||-5--5----9--|
--------------------2---------------|----------7-||---------7--|
------------------------------------|------------||------------|

REPEAT INTRO/VERSE:

CHORUS:

SOLO:
--2-----------------------------------------------------------2-|
-----------3-----------------------------------------------3----|
--------------2-----------------------------------------2-------|
-2----------------4^(4)^(4)--------2---4---2-4---2-4-4----------|
----------------------------------------------------------------|
----------------------------------------------------------------|

--3/5-5-3----2-3-2-3-2-0-2----------------------|----------9-10-12-12^(12)-|
------------------------------------------------|----9--10-----------------|
----------------------------------------------10|-10-----------------------|
----------------------------X-----X-12/11/12----|--------------------------|
------------------------------------------------|--------------------------|
------------------------------------------------|--------------------------|

-10-12-(12)\0-----17------17----------------------------------------14---14|
--------------17^----17---------17^-----17^(17)17^(17)--15----15-17^----17-|
-----------------------------------------------------------16--------------|
---------------------------------------------------------------------------|
---------------------------------------------------------------------------|
---------------------------------------------------------------------------|

-14-17-15-14-15-14-17-14-15-14-19-14-17-14-15-14-17-15-14----------------|
---------------------------------------------------------17-15-17-15-14--|
-------------------------------------------------------------------------|
-------------------------------------------------------------------------|
-------------------------------------------------------------------------|
-------------------------------------------------------------------------|

-------------------------------------|
-16\14-16-14\12-11\9-11-9\7\6-6^-----|
-------------------------------------|
-------------------------------------|
---------------------------------4%--|
-------------------------------------|
                                       Oh ohhhhhh ohhhhhhhhh
---------------------------------0--0-|-21^--(21)-19---21^(21)19--22^-(22)\|
--------------14----14-----14----0--0-|---------------22--------22---------|
--------14-14-16^-X-16^----16^---14---|------------------------------------|
--14/16------------------X-----X------|------------------------------------|
-------------------------X-----X------|------------------------------------|
--------------------------------------|------------------------------------|

REPEAT CHORUS

OUTRO:
I love youuuuuuuu

         Ohhhhhhhh                {KISS}
-5----3------------2---|
-7----5------------4---|
-6----3------------2---|
-7----5------------4---|
-5----3------------2---|
-----------------------|

Thats it at last!!!I brought the tab book 2day and made a few changes,so im more than
sure that this is 100% correct. Im not too sure about the timing I think its a little out
in some places but it's good enough for you to work out. If you hav any problems e-mail
me mandycobb20@hotmail.com and i'll try and sort out what it is that ur havin probs wiv.
DARKNESS ROCK!!!!!!
PERMISSION TO LAND IS THE BEST!!!
Suggest correction
comments
print report bad tab
guest
You may want to rate the tab now too:
select rating
Wanna post a correction for this tab? Suggest correction