Oops, an error
Loading. Please wait.

Love Is Only A Feeling tab

version 7
1,448 views 1 this week
no commentswrite comment
1 2 3 4 5
3 more votes to show rating
add to favorites
×
Save as Personal and add changes to this tab that will be seen only by you. Learn more ›
×
You can save this tab as Personal to edit and correct it or add notes. All changes will be seen only by you. Learn more »
launch autoscroll
font size
0
reset
how to read this tab
guitar tuner
backing track
0:00
0:00
edit
Autoscroll
slow
fast
+/-
esc
set tempo
stop
LOVE IS ONLY A FEELING – THE DARKNESS

GUITAR 1 = Acoustic
GUITAR 2 = Electric

Intro =  (HEAVY DIST) (electric only, guitar 2)

e|---------------------------------------------------------------------|
B|---------------------------------------------------------------------|
G|--14/h/16--16-16-16-16-16-14---14------------------------------------|
D|---------------------------------------14--16--14-------17-----------|
A|-----------------------------------17--------------17-14-------------|
E|---------------------------------------------------------------------|

e|--------17----------17-----17----------17--17------------------------|
B|--17bu----17bu--17bu---17bu---17bu-17----15--14----------------------|
G|-------------------------------------------------16--14--------------|
D|---------------------------------------------------------------------|
A|---------------------------------------------------------------------|
E|---------------------------------------------------------------------|

e|---------------------------------------------------------------------|
B|--------------------------------------15--17--15-17bu19bd17-15-------|
G|--14/h/16--16-16-16-16-16-14--14/h/16--------------------------16----|
D|---------------------------------------------------------------------|
A|---------------------------------------------------------------------|
E|---------------------------------------------------------------------|

e|-15-15-15--14-14-14---------------------------------------------------|
B|---------------------17-17 1715-15-15-15----17------------------------|
G|------------------------------------------14--------------------------|
D|----------------------------------------------------------------------|
A|----------------------------------------------------------------------|
E|----------------------------------------------------------------------|


verse (guitar 1 only)

    G      D      A       G        G        D       A      A
e|---3-----2--------------3--------3--------2-------------------------------|
B|---0-----3------2-------0--------0--------3-------2------2----------------|
G|---0-----2------2-------0--------0--------2-------2------2-----(x2)-------|
D|---0------------2-------0--------0----------------2------2----------------|
A|---2--------------------2--------2----------------------------------------|
E|---3--------------------3--------3----------------------------------------|

 G      D      A       G        G        D       A      A
e|---3-----2--------------3--------3--------2-------------------------------|
B|---0-----3------2-------0--------0--------3-------2------2----------------|
G|---0-----2------2-------0--------0--------2-------2------2-----(x2)-------|
D|---0------------2-------0--------0----------------2------2----------------|
A|---2--------------------2--------2----------------------------------------|
E|---3--------------------3--------3----------------------------------------|


pre-chorus = (HEAVY DIST)
    E5   A5    E5  D5
e|--------------------------------------------------------------------------|
B|--------------------------------------------------------------------------|
G|--------------------------------------------------------------------------|
D|-------2---------7--------------------------------------------------------|
A|---2---0----2----5--------------------------------------------------------|
E|---0--------0-------------------------------------------------------------|

chorus =  (HEAVY DIST)

      B5  G5 D5 A5       B5   G5  D5  A5    B5  G5 D5  A5   G5   E5
e|---------------------------------------------------------------------------|
B|---------------------------------------------------------------------------|
G|---------------------------------------------------------------------------|
D|------------7--2----------------7---2------------7---2---------------------|
A|-----9---5--5--0-------9----5---5---0-----9---5--5---0----5----2-----------|
E|-----7---3-------------7----3-------------7---3-----------3----0-----------|

GTR 2 (chorus :lead/ solo)
Repeat once
E-----12---------12--------12--------12---------------------------------|
B--10----10---10----10--10----10--10----10------------------------------|
G-----------------------------------------------------------------------|
D-----------------------------------------------------------------------|
A-----------------------------------------------------------------------|
E-----------------------------------------------------------------------|


gt.1 play bridge While solo is playing (HEAVY DIST)
G      D      A       G        G        D       A      A
e|---3-----2--------------3--------3--------2-------------------------------|
B|---0-----3------2-------0--------0--------3-------2------2----------------|
G|---0-----2------2-------0--------0--------2-------2------2-----(x1)-------|
D|---0------------2-------0--------0----------------2------2----------------|
A|---2--------------------2--------2----------------------------------------|
E|---3--------------------3--------3----------------------------------------|

GTR 2 SOLO: (same as intro)

e|---------------------------------------------------------------------|
B|---------------------------------------------------------------------|
G|--14/h/16--16-16-16-16-16-14---14------------------------------------|
D|---------------------------------------14--16--14-------17-----------|
A|-----------------------------------17--------------17-14-------------|
E|---------------------------------------------------------------------|

e|--------17----------17-----17----------17--17------------------------|
B|--17bu----17bu--17bu---17bu---17bu-17----15--14----------------------|
G|-------------------------------------------------16--14--------------|
D|---------------------------------------------------------------------|
A|---------------------------------------------------------------------|
E|---------------------------------------------------------------------|

e|---------------------------------------------------------------------|
B|--------------------------------------15--17--15-17bu19bd17-15-------|
G|--14/h/16--16-16-16-16-16-14--14/h/16--------------------------16----|
D|---------------------------------------------------------------------|
A|---------------------------------------------------------------------|
E|---------------------------------------------------------------------|

e|-15-15-15--14-14-14---------------------------------------------------|
B|---------------------17-17 1715-15-15-15----17------------------------|
G|------------------------------------------14--------------------------|
D|----------------------------------------------------------------------|
A|----------------------------------------------------------------------|
E|----------------------------------------------------------------------|

verse 2= (clean)
G      D      A       G        G        D       A      A
e|---3-----2--------------3--------3--------2-------------------------------|
B|---0-----3------2-------0--------0--------3-------2------2----------------|
G|---0-----2------2-------0--------0--------2-------2------2-----(x1)-------|
D|---0------------2-------0--------0----------------2------2----------------|
A|---2--------------------2--------2----------------------------------------|
E|---3--------------------3--------3----------------------------------------|

pre-chorus = (HEAVY DIST)
    E5   A5    E5  D5
e|--------------------------------------------------------------------------|
B|--------------------------------------------------------------------------|
G|--------------------------------------------------------------------------|
D|-------2---------7--------------------------------------------------------|
A|---2---0----2----5--------------------------------------------------------|
E|---0--------0-------------------------------------------------------------|


chorus =  (HEAVY DIST)
      B5  G5 D5 A5       B5   G5  D5  A5    B5   G5  D5  A5    D5
e|--------------------------------------------------------------------------|
B|--------------------------------------------------------------------------|
G|--------------------------------------------------------------------------|
D|------------7--2----------------7---2-------------7----2-----7------------|
A|-----9---5--5--0-------9----5---5---0-----9---5---5----0-----5------------|
E|-----7---3-------------7----3-------------7---3---------------------------|
gt.2 solo

e|---------------------------------------------------------------------|
B|---------------------------------------------------------------------|
G|--14/h/16--16-16-16-16-16-14---14------------------------------------|
D|---------------------------------------14--16--14-------17-----------|
A|-----------------------------------17--------------17-14-------------|
E|---------------------------------------------------------------------|

e|--------17----------17-----17----------17--17------------------------|
B|--17bu----17bu--17bu---17bu---17bu-17----15--14----------------------|
G|-------------------------------------------------16--14--------------|
D|---------------------------------------------------------------------|
A|---------------------------------------------------------------------|
E|---------------------------------------------------------------------|

e|---------------------------------------------------------------------|
B|--------------------------------------15--17--15-17bu19bd17-15-------|
G|--14/h/16--16-16-16-16-16-14--14/h/16--------------------------16----|
D|---------------------------------------------------------------------|
A|---------------------------------------------------------------------|
E|---------------------------------------------------------------------|

e|-15-15-15--14-14-14---------------------------------------------------|
B|---------------------17-17 1715-15-15-15----17------------------------|
G|------------------------------------------14--------------------------|
D|----------------------------------------------------------------------|
A|----------------------------------------------------------------------|
E|----------------------------------------------------------------------|

gt.1 bridge (wiv solo playin in background)

    G     D     A     A       B5    G5    D5    A5
e|--3-----2-----------------------------------------------------------------|
B|--0-----3-----2-----2-----------------------------------------------------|
G|--0-----2-----2-----2-----------------------------------------------------|keep playing untill
D|--0-----------2-----2--------------------7----2---------------outro,when--|
A|--2--------------------------9-----5-----5----0---------------solo ends---|
E|--3--------------------------7-----3--------------------------------------|


Outro=

     B5   FADE IN     G     D    A    G      G     D     A    A     EM
e|--------------------3-----2---------3------3-----2-------------------------|
B|--------------------0-----3----2----0------0-----3-----2----2--------------|
G|--------------------0-----2----2----0------0-----2-----2----2--------------|
D|--------------------0----------2----0------0-----------2----2------2-------|
A|---9----------------2---------------2------2-----------------------2-------|
E|---7----------------3---------------3------3-------------------------------|


CODA:   [[GTR 2 (GTR1 plays Chorus riff)]]

E--------------------------------------------------------------12[14]--12[14]--|
B----------------7[8]-----------10[12]-10[12]-10--14[15]-14-12-----------------|
G----------------7[8]---9[11]-9------------------------------------------------|
D---------------------9--------------------------------------------------------|
A---------5-5-5----------------------------------------------------------------|
E--7---------------------------------------------------------------------------|
                                              T           T          T
E--12-10----------------------------12[14]---14^12^10^12^14^12^10^12^14^12^10--|
B--------12--10[12]------7---7-------------------------------------------------|
G--------------------------7---7-----------------------------------------------|
D--------------------------------9---------------------------------------------|
A------------------------------------------------------------------------------|
E------------------------------------------------------------------------------|
        T T           T           T           T
E--^12^14---------------------------------------15^12^10^12^17^12^17-17[19]----|
B--------14^12^10^12^14^12^10^12^14^12^10^12^14--------------------------------|
G------------------------------------------------------------------------------|
D------------------------------------------------------------------------------|
A------------------------------------------------------------------------------|
E------------------------------------------------------------------------------|


E------------------------------------------------------------------------------|
B------------------------------------------------------------------------------|
G--16-14-12----------------------16-14-12-12-14-12-----------------16-14-12-12-|
D-----------12----------12-12-12-------------------14-12--12-12-12-------------|
A------------------------------------------------------------------------------|
E------------------------------------------------------------------------------|

E------------------------------------------------------------------------------|
B------------------------------------------------------------------------------|
G--14-12----------------14[16]-------------------------------------------------|
D--------14-12-----------------------------------------------------------------|
A------------------------------------------------------------------------------|
E------------------------------------------------------------------------------|

tht last riff/ solo is abit improvised but the rest is near enuf perfect!!!

            
            
Suggest correction
Creating personal tab
Creating personal tab
You can edit any tab online and save it as your Personal.

You can edit, replace or remove any tab part or add personal notes – all changes will be seen only by you.

Personal tabs can be accessed anytime from any device, even offline.
Learn more »
Give kudos to tab author, rate the tab!
1 2 3 4 5
comments
print report bad tab
guest
Wanna post a correction for this tab? Suggest correction