Oops, an error
Loading. Please wait.

Love On The Rocks With No Ice tab

version 3
version 3

Whole song

Interactive

1,938 views 3 this week
1 commentread comment
1 2 3 4 5
x 6
add to favorites
×
Save as Personal and add changes to this tab that will be seen only by you. Learn more ›
×
You can save this tab as Personal to edit and correct it or add notes. All changes will be seen only by you. Learn more »
launch autoscroll
font size
0
reset
how to read this tab
guitar tuner
backing track
0:00
0:00
edit
Autoscroll
slow
fast
+/-
esc
set tempo
stop
Author
[Intro]
(guitar 1)
   h h     p p         h h     p p         h h     p p
e|------------------------------------------------------------0-----0----------|
B|--------------------------0----------------------------------0-----0---------|
G|------0---------------------------------------0---------------3-3---3-4------|(4.5)
D|--------------------0^2^4---4^2^0-2------------------------------------------|
A|0^2^4---4^2^0-2---------------------0-0-0^2^4---4^2^0-2----------------------|
E|----------------0-0-------------------------------------0-0------------------|

(then both guitars)
e|----------------------------|           |---|
B|----------------------------|           |---|
G|-----7----------------------|           |---|
D|-----7----------------------|  (x2)     |-2-|
A|-2-2-5-2--8-5-7-7-5-7--8-5--|  end on   |-2-| let ring through first
E|-0-0---0--6-3-5-5-3-5--6-3--|           |-0-| beginning of verse

[Verse] 
(guitar 1)
    h h      p p
e|-------------------------------------------------------------------|
B|--------------------3----------------------------------------------|
G|-------2------------2-------11--------------7----------------------|
D|--------------------0--0-/9-----4^2^0-------7----------------------|
A|-0^2^4----4^2^0-2---------------------0-2-2-5-2--8-5-7-7-5-7--8-5--|
E|------------------0---------------------0-0---0--6-3-5-5-3-5--6-3--|

e|----------------------------------------------------------------------3-|
B|-----------------------3-3-3-3-----3-----3-----3---3(3.5)-3-0---------3-|
G|-----7-----------------2-2-2-2-----2-----2-----2--------------2-0---0-0-|
D|-----7-----------------0-0-0-0-----0-----0-----0------------------2-----|
A|-2-2-5-2--8-5-7-7-5-7----------0-0---0-0---0-0---0----------------------|
E|-0-0---0--6-3-5-5-3-5---------------------------------------------------|

e|-----3-----3-----3---3-3-3-3------2-----2-----2---------3-----2-|
B|-----3-----3-----3---3-3-3-3------3-----3-----3---------3-----3-|
G|-----0-----0-----0---0-0-0-0------0-----0-----0---------0-----2-|
D|-0-0---0-0---0-0---0--------------------------------0---0-----0-|
A|------------------------------0-0---0-0---0-0---0-0---0-------0-|
E|--------------------------------------------------------3-------|

(bit before chorus)
                       h
e|----7----9-------11------12-|
B|-/5---/7------/9----9^10----|
G|----------------------------|
D|----------------------------|
A|----------------------------|
E|----------------------------|

[Chorus]
e|-------------------------------------------------------------|
B|-------------------------------------------------------------|
G|--7--------------7--------------7----------------------------|
D|--7--------------7--------------7----------------------------|
A|--5-2--2--2-5-2--5-2--2--2-5-2--5--2--2--2-5-2---------------|
E|----0--0--0-3-0----0--0--0-3-0-----0--0--0-3-0--3-2-0-3-2-0--|

e|---------------------------------------------------------------|
B|---------------------------------------------------------------|
G|--7--------------7--------------7----------------------------2-|
D|--7--------------7--------------7----------------------------2-|
A|--5-2--2--2-5-2--5-2--2--2-5-2--5--2--2--2-5-2---------------0-|
E|----0--0--0-3-0----0--0--0-3-0-----0--0--0-3-0--3-2-0-3-2-0----|

(backing to solo 1 / verse 2)
e|------------------------------|
B|------------------------------|
G|-9-9-7-9----------------------|
D|-9-9-7-9--8--5--7-7-5-7--8--5-|
A|-7-7-5-7--8--5--7-7-5-7--8--5-|
E|----------6--3--5-5-3-5--6--3-|



************************************

| /  Slide up
|    
| (  
| (x 
| )  
| .  
| ^  
| end on 

************************************

            
            
Suggest correction
Creating personal tab
Creating personal tab
You can edit any tab online and save it as your Personal.

You can edit, replace or remove any tab part or add personal notes – all changes will be seen only by you.

Personal tabs can be accessed anytime from any device, even offline.
Learn more »
comments
print report bad tab
1 comment total.
0 reply
paulson 515 Jan 14, 2004 07:00 PM

01/15/2004] by paulson:
hey guys if u want i have a darkness tab book so if u want a correct tab email me and ill send u the song (if thats cool) ps not bad lol
aint_life_a_bitc_h@hotmail.com

guest
You may want to rate the tab now too:
select rating
Wanna post a correction for this tab? Suggest correction