Oops, an error
Loading. Please wait.

Roaring Waters tab

version 2
version 2

Whole song

  • I have looked at the way Dan Hawkins (Original Pla... Show more
112 views 15 this week
no commentswrite comment
1 2 3 4 5
3 more votes to show rating
add to favorites
×
Save as Personal and add changes to this tab that will be seen only by you. Learn more ›
×
You can save this tab as Personal to edit and correct it or add notes. All changes will be seen only by you. Learn more »
launch autoscroll
font size
0
reset
how to read this tab
guitar tuner
edit
Autoscroll
slow
fast
+/-
esc
set tempo
stop
Author
Difficulty
About this tab version
I have looked at the way Dan Hawkins (Original Player) plays it in a video and have tried to replicate it as best as I can. Was this info helpful? Yes No
                             Roaring Waters - The Darkness

Tabbed by Jack Whittaker

Tuning: (DGDGBe)

[Intro}

e|-------------------------------------------------------------------------|
B|-------------------------------------------------------------------------|
G|--0~---------------------------------------------------------------------|
D|--0~---------------------------------------------------------------------|
G|--0~-----------------------------------------------------------------12\-|
D|--0~---------------------------------------------------------------------|

e|------------------------------------|------------------------------------|
B|------------------------------------|------------------------------------|
G|---------------------0--------------|---------------------0--------------|
G|------------------------------------|------------------------------------|
G|------0---3p0---0------6p0-5p0-3----|------0---3p0---0------6p0-5p0-3----|
D|--3-----------3---------------------|--3-----------3---------------------|

e|------------------------------------|------------------------------------|
B|------------------------------------|------------------------------------|
G|---------------------0--------------|---------------------0--------------|
G|------------------------------------|------------------------------------|
G|------0---3p0---0------6p0-5p0-3----|------0---3p0---0------6p0-5p0-3----|
D|--3-----------3---------------------|--3-----------3---------------------|

e|------------------------------------|------------------------------------|
B|------------------------------------|------------------------------------|
G|---------------------0--------------|---------------------0--------------|
G|------------------------------------|------------------------------------|
G|-/12\-0---3p0---0------6p0-5p0-3----|------0---3p0---0------6p0-5p0-3----|
D|--------------3---------------------|--3-----------3---------------------|

e|------------------------------------|------------------------------------|
B|------------------------------------|------------------------------------|
G|---------------------0--------------|---------------------0--------------|
G|------------------------------------|------------------------------------|
G|-/12\-0---3p0---0------6p0-5p0-3----|------0---3p0---0------6p0-5p0-0----|
D|--------------3---------------------|--3-----------3---------------------|

[Verse 1]

e|------------------------------------|------------------------------------|
B|-5-5-5-5-5--5--x--5--x--5-x--6--6---|-5-5-5-5-5--5--x--5--x--5-x--6--6---|
G|-3-3-3-3-3--3--3--3--3--3-3--5--5---|-3-3-3-3-3--3--3--3--3--3-3--5--5---|
D|-3-3-3-3-3--3--3--3--3--3-3--5--5---|-3-3-3-3-3--3--3--3--3--3-3--5--5---|
G|-3-3-3-3-3--3--3--3--3--3-3--5--5---|-3-3-3-3-3--3--3--3--3--3-3--5--5---|
D|------------------------------------|------------------------------------|

e|------------------------------------|------------------------------------|
B|------------------------------------|------------------------------------|
G|---------------------0--------------|---------------------0--------------|
G|------------------------------------|------------------------------------|
G|------0---3p0---0------6p0-5p0-3----|------0---3p0---0------6p0-5p0-3----|
D|--3-----------3---------------------|--3-----------3---------------------|

e|------------------------------------|------------------------------------|
B|------------------------------------|------------------------------------|
G|---------------------0--------------|---------------------0--------------|
G|------------------------------------|------------------------------------|
G|-/12\-0---3p0---0------6p0-5p0-3----|------0---3p0---0------6p0-5p0-0----|
D|--------------3---------------------|--3-----------3---------------------|

e|------------------------------------|------------------------------------|
B|-5-5-5-5-5--5--x--5--x--5-x--6--6---|-5-5-5-5-5--5--x--5--x--5-x--6--6---|
G|-3-3-3-3-3--3--3--3--3--3-3--5--5---|-3-3-3-3-3--3--3--3--3--3-3--5--5---|
D|-3-3-3-3-3--3--3--3--3--3-3--5--5---|-3-3-3-3-3--3--3--3--3--3-3--5--5---|
G|-3-3-3-3-3--3--3--3--3--3-3--5--5---|-3-3-3-3-3--3--3--3--3--3-3--5--5---|
D|------------------------------------|------------------------------------|

[Pre-Chorus]

e|------------------------------------------------/15-14~----13~-----------|
B|------13b15~-----13p10h13p10---------------------------------------------|
G|-----------------------------13p10-11h12-10h11---------------------------|
D|-------------------------------------------------------------------------|
G|-------------------------------------------------------------------------|
D|--0----------------------------------------------------------------------|

[Chorus]

e|-------------------------------------------------------------------------|
B|-------3----6------6------6-----------5-5-5-5-5-------5-5-5-5-5----------|
G|-0--2--0----9b10---9b10---9b10r--7-3--3-3-3-3-3--5-3--3-3-3-3-3--------0-|
D|-0--0--3---------------------------3--3-3-3-3-3--5-3--3-3-3-3-3--------0-|
G|-0-----0---------------------------3--3-3-3-3-3--5-3--3-3-3-3-3--6--5--0-|
D|-----------------------------------------------------------------6--5----|

e|-------------------------------------------------------------------------|
B|-------3----6------6------6-----------5-5-5-5-5-------5-5-5-5-5----------|
G|-0--2--0----9b10---9b10---9b10r--7-3--3-3-3-3-3--5-3--3-3-3-3-3--------0-|
D|-0--0--3---------------------------3--3-3-3-3-3--5-3--3-3-3-3-3--------0-|
G|-0-----0---------------------------3--3-3-3-3-3--5-3--3-3-3-3-3--6--5--0-|
D|-----------------------------------------------------------------6--5----|

[Bridge]

e|-6p5p3p00---6p5p3p00---6p5p3p00-3-3~|-6p5p3p00---6p5p3p00---6p5p3p00-3-3~|
B|------------------------------------|------------------------------------|
G|------------------------------------|------------------------------------|
D|------------------------------------|------------------------------------|
G|------------------------------------|------------------------------------|
D|------------------------------------|------------------------------------|

e|-6p5p3p00---6p5p3p00---6p5p3p00-3-3~|------3-----------------------------|
B|------------------------------------|--3-------6p3-----------------------|
G|------------------------------------|--5b7---------5---3--5--3-----------|
D|------------------------------------|---------------------------5--------|
G|------------------------------------|------------------------------------|
D|------------------------------------|------------------------------------|

e|------------------------------------|------------------------------------|
B|------------------------------------|------------------------------------|
G|---------------------0--------------|---------------------0--------------|
G|------------------------------------|------------------------------------|
G|------0---3p0---0------6p0-5p0-3----|------0---3p0---0------6p0-5p0-3----|
D|--3-----------3---------------------|--3-----------3---------------------|

e|------------------------------------|------------------------------------|
B|------------------------------------|------------------------------------|
G|---------------------0--------------|---------------------0--------------|
G|------------------------------------|------------------------------------|
G|-/12\-0---3p0---0------6p0-5p0-3----|------0---3p0---0------6p0-5p0-0----|
D|--------------3---------------------|--3-----------3---------------------|

[Verse 2]

e|------------------------------------|------------------------------------|
B|-5-5-5-5-5--5--x--5--x--5-x--6--6---|-5-5-5-5-5--5--x--5--x--5-x--6--6---|
G|-3-3-3-3-3--3--3--3--3--3-3--5--5---|-3-3-3-3-3--3--3--3--3--3-3--5--5---|
D|-3-3-3-3-3--3--3--3--3--3-3--5--5---|-3-3-3-3-3--3--3--3--3--3-3--5--5---|
G|-3-3-3-3-3--3--3--3--3--3-3--5--5---|-3-3-3-3-3--3--3--3--3--3-3--5--5---|
D|------------------------------------|------------------------------------|

e|------------------------------------|------------------------------------|
B|------------------------------------|------------------------------------|
G|---------------------0--------------|---------------------0--------------|
G|------------------------------------|------------------------------------|
G|------0---3p0---0------6p0-5p0-3----|------0---3p0---0------6p0-5p0-3----|
D|--3-----------3---------------------|--3-----------3---------------------|

e|------------------------------------|------------------------------------|
B|------------------------------------|------------------------------------|
G|---------------------0--------------|---------------------0--------------|
G|------------------------------------|------------------------------------|
G|-/12\-0---3p0---0------6p0-5p0-3----|------0---3p0---0------6p0-5p0-0----|
D|--------------3---------------------|--3-----------3---------------------|

e|------------------------------------|------------------------------------|
B|-5-5-5-5-5--5--x--5--x--5-x--6--6---|-5-5-5-5-5--5--x--5--x--5-x--6--6---|
G|-3-3-3-3-3--3--3--3--3--3-3--5--5---|-3-3-3-3-3--3--3--3--3--3-3--5--5---|
D|-3-3-3-3-3--3--3--3--3--3-3--5--5---|-3-3-3-3-3--3--3--3--3--3-3--5--5---|
G|-3-3-3-3-3--3--3--3--3--3-3--5--5---|-3-3-3-3-3--3--3--3--3--3-3--5--5---|
D|------------------------------------|------------------------------------|

[Pre-Chorus]

e|------------------------------------------------/15-14~----13~-----------|
B|--10-----10h13p10-10----10h13p10---8b------------------------------------|
G|--12bb14----------12b14--------------------------------------------------|
D|-------------------------------------------------------------------------|
G|-------------------------------------------------------------------------|
D|-------------------------------------------------------------------------|

[Chorus]

e|-------------------------------------------------------------------------|
B|-------3----6------6------6-----------5-5-5-5-5-------5-5-5-5-5----------|
G|-0--2--0----9b10---9b10---9b10r--7-3--3-3-3-3-3--5-3--3-3-3-3-3--------0-|
D|-0--0--3---------------------------3--3-3-3-3-3--5-3--3-3-3-3-3--------0-|
G|-0-----0---------------------------3--3-3-3-3-3--5-3--3-3-3-3-3--6--5--0-|
D|-----------------------------------------------------------------6--5----|

e|-------------------------------------------------------------------------|
B|-------3----6------6------6-----------5-5-5-5-5-------5-5-5-5-5----------|
G|-0--2--0----9b10---9b10---9b10r--7-3--3-3-3-3-3--5-3--3-3-3-3-3--------0-|
D|-0--0--3---------------------------3--3-3-3-3-3--5-3--3-3-3-3-3--------0-|
G|-0-----0---------------------------3--3-3-3-3-3--5-3--3-3-3-3-3--6--5--0-|
D|-----------------------------------------------------------------6--5----|

[Bridge]

e|-------------------------------------------------------------------------|
B|-------------------------------------------------------------------------|
G|-------------------------------------------------------------------------|
D|-------------------------------------------------------------------------|
G|-------------------------------------------------------------------------|
D|--0-12-0-0-11-0-0-10-0-0-9-0-0-8-0-0-7-0-0-6-0-0-5-0-3---3---5-5---------|

e|-------------------------------------------------------------------------|
B|-------------------------------------------------------------------------|
G|-------------------------------------------------------------------------|
D|-------------------------------------------------------------------------|
G|-------------------------------------------------------------------------|
D|--0-12-0-0-11-0-0-10-0-0-9-0-0-8-0-0-7-0-0-3---5-5-----------------------|

e|-------------------------------------------------------------------------|
B|-------------------------------------------------------------------------|
G|-------------------------------------------------------------------------|
D|-------------------------------------------------------------------------|
G|-------------------------------------------------------------------------|
D|--0-12-0-0-11-0-0-10-0-0-9-0-0-8-0-0-7-0-0-6-0-0-5-0-3---3---5-5---------|

e|-------------------------------------------------------------------------|
B|-------------------------------------------------------------------------|
G|-------------------------------------------------------------------------|
D|-------------------------------------------------------------------------|
G|-------------------------------------------------------------------------|
D|--0-12-0-0-11-0-0-10-0-0-9-0-0-8-0-0-7-0-0-3---5-5-----------------------|

e|-------------------------------------------------------------------------|
B|-------------------------------------------------------------------------|
G|-------------------------------------------------------------------------|
D|-------------------------------------------------------------------------|
G|--0-12-0-0-11-0-0-10-0-0-9-0-0-8-0-0-7-0-0-6-0-0-5-0-3---3---5-5---------|
D|-------------------------------------------------------------------------|

e|-------------------------------------------------------------------------|
B|-------------------------------------------------------------------------|
G|-------------------------------------------------------------------------|
D|-------------------------------------------------------------------------|
G|--0-12-0-0-11-0-0-10-0-0-9-0-0-8-0-0-7-0-0-3---5-5-----------------------|
D|-------------------------------------------------------------------------|

e|-------------------------------------------------------------------------|
B|-------------------------------------------------------------------------|
G|-------------------------------------------------------------------------|
D|-------------------------------------------------------------------------|
G|--0-12-0-0-11-0-0-10-0-0-9-0-0-8-0-0-7-0-0-6-0-0-5-0-3---3---5-5---------|
D|-------------------------------------------------------------------------|

e|-------------------------------------------------------------------------|
B|-------------------------------------------------------------------------|
G|-------------------------------------------------------------------------|
D|-------------------------------------------------------------------------|
G|--0-12-0-0-11-0-0-10-0-0-9-0-0-8-0-0-7-0-0-3---5-5-----------------------|
D|-------------------------------------------------------------------------|

e|-6p5p3p00---6p5p3p00---6p5p3p00-3-3~|-6p5p3p00---6p5p3p00---6p5p3p00-3-3~|
B|------------------------------------|------------------------------------|
G|------------------------------------|------------------------------------|
D|------------------------------------|------------------------------------|
G|------------------------------------|------------------------------------|
D|------------------------------------|------------------------------------|

e|--6b8~--6~--3----------3-------------------------------------------------|
B|-----------------------3-------------------------------------------------|
G|--------------5b7r5-3----5b7r5-3~--5b~----0-----0-----0------------------|
D|--------------------------------------------0-----0---------0------------|
G|----------------------------------------------0-----0--------------------|
D|------------------------------------------------------------------3b5~---|

e|-------------------------------------------------------------------------|
B|-------------------------------------------------------------------------|
G|--6--6--6--6--6--4----6----4--6--6b7~-6--7--9--9b10~---------------------|
D|-------------------------------------------------------------------------|
G|-------------------------------------------------------------------------|
D|-------------------------------------------------------------------------|

[Verse 3]

e|------------------------------------|------------------------------------|
B|-5-5-5-5-5--5--x--5--x--5-x--6--6---|-5-5-5-5-5--5--x--5--x--5-x--6--6---|
G|-3-3-3-3-3--3--3--3--3--3-3--5--5---|-3-3-3-3-3--3--3--3--3--3-3--5--5---|
D|-3-3-3-3-3--3--3--3--3--3-3--5--5---|-3-3-3-3-3--3--3--3--3--3-3--5--5---|
G|-3-3-3-3-3--3--3--3--3--3-3--5--5---|-3-3-3-3-3--3--3--3--3--3-3--5--5---|
D|------------------------------------|------------------------------------|

e|------------------------------------|------------------------------------|
B|------------------------------------|------------------------------------|
G|---------------------0--------------|---------------------0--------------|
G|------------------------------------|------------------------------------|
G|------0---3p0---0------6p0-5p0-3----|------0---3p0---0------6p0-5p0-3----|
D|--3-----------3---------------------|--3-----------3---------------------|

e|------------------------------------|------------------------------------|
B|------------------------------------|------------------------------------|
G|---------------------0--------------|---------------------0--------------|
G|------------------------------------|------------------------------------|
G|-/12\-0---3p0---0------6p0-5p0-3----|------0---3p0---0------6p0-5p0-0----|
D|--0-----------3---------------------|--3-----------3---------------------|

e|------------------------------------|------------------------------------|
B|-5-5-5-5-5--5--x--5--x--5-x--6--6---|-5-5-5-5-5--5--x--5--x--5-x--6--6---|
G|-3-3-3-3-3--3--3--3--3--3-3--5--5---|-3-3-3-3-3--3--3--3--3--3-3--5--5---|
D|-3-3-3-3-3--3--3--3--3--3-3--5--5---|-3-3-3-3-3--3--3--3--3--3-3--5--5---|
G|-3-3-3-3-3--3--3--3--3--3-3--5--5---|-3-3-3-3-3--3--3--3--3--3-3--5--5---|
D|------------------------------------|------------------------------------|

[Pre-Chorus]

e|--------------13p10----10~---10-15b17r15p13-------13---------------------|
B|--pb15r13b15--------13----------------------15~--------------------------|
G|-----------------------------------------------------12b14r12p10---------|
D|-------------------------------------------------------------------------|
G|-------------------------------------------------------------------------|
D|-------------------------------------------------------------------------|

e|--/15-14~----13~---------------------------------------------------------|
B|-------------------------------------------------------------------------|
G|-------------------------------------------------------------------------|
D|-------------------------------------------------------------------------|
G|-------------------------------------------------------------------------|
D|-------------------------------------------------------------------------|

[Chorus}

e|-------------------------------------------------------------------------|
B|-------3----6------6------6-----------5-5-5-5-5-------5-5-5-5-5----------|
G|-0--2--0----9b10---9b10---9b10r--7-3--3-3-3-3-3--5-3--3-3-3-3-3--------0-|
D|-0--0--3---------------------------3--3-3-3-3-3--5-3--3-3-3-3-3--------0-|
G|-0-----0---------------------------3--3-3-3-3-3--5-3--3-3-3-3-3--6--5--0-|
D|-----------------------------------------------------------------6--5----|

e|-------------------------------------------------------------------------|
B|-------3----6------6------6-----------5-5-5-5-5-------5-5-5-5-5----------|
G|-0--2--0----9b10---9b10---9b10r--7-3--3-3-3-3-3--5-3--3-3-3-3-3--------0-|
D|-0--0--3---------------------------3--3-3-3-3-3--5-3--3-3-3-3-3--------0-|
G|-0-----0---------------------------3--3-3-3-3-3--5-3--3-3-3-3-3--6--5--0-|
D|-----------------------------------------------------------------6--5----|

[Outro]

e|-------------------------------------------------------------------------|
B|-------------------------------------------------------------------------|
G|-------------------------------------------------------------------------|
D|-------------------------------------------------------------------------|
G|--0-12-0-0-11-0-0-10-0-0-9-0-0-8-0-0-7-0-0-6-0-0-5-0-3---3---5-5---------|
D|-------------------------------------------------------------------------|

e|-------------------------------------------------------------------------|
B|-------------------------------------------------------------------------|
G|-------------------------------------------------------------------------|
D|-------------------------------------------------------------------------|
G|--0-12-0-0-11-0-0-10-0-0-9-0-0-8-0-0-7-0-0-3---5-5-----------------------|
D|-------------------------------------------------------------------------|

e|-------------------------------------------------------------------------|
B|-------------------------------------------------------------------------|
G|--0----------------------------------------------------------------------|
D|--0----------------------------------------------------------------------|
G|--0----------------------------------------------------------------------|
D|-------------------------------------------------------------------------|

[Key]

| /   slide up
| \   slide down
| h   hammer-on
| p   pull-off
| ~   vibrato
| +   harmonic
| x   Mute note
| b   Bend
| pb  Pre-bend
| br  Bend release
| pbr Pre-bend release
| brb Bend release bend

            
            
Suggest correction
Creating personal tab
Creating personal tab
You can edit any tab online and save it as your Personal.

You can edit, replace or remove any tab part or add personal notes – all changes will be seen only by you.

Personal tabs can be accessed anytime from any device, even offline.
Learn more »
Give kudos to tab author, rate the tab!
1 2 3 4 5
comments
print report bad tab
guest
You may want to rate the tab now too:
select rating
Wanna post a correction for this tab? Suggest correction