Oops, an error
Loading. Please wait.

Hey Lover Bass Tab

13 views 3 this week
no commentswrite comment
1 2 3 4 5
3 more votes to show rating
add to favorites
launch autoscroll
font size
0
reset
guitar tuner
Autoscroll
slow
fast
+/-
esc
set tempo
stop
Help us to improve Ultimate-Guitar.com Take our survey!
×
Author
Difficulty
novice
Tabbed by: 6METAL6BASSIST6
E-mail: petergriffinav@gmail.com

Tuning: 1/4 step down.

G|----------------------------------------------------------------|
D|6---------------6---------------6---------------6---------------|
A|------------6-----------6-------------------6-----------6-------|
E|----------------------------------------------------------------|

G|----------------------------------------------------------------|
D|6---------------6---------------6-------------------------------|
A|------------6-----------6---------------------------------------|
E|----------------------------------------------------------------|

0:09

G|----------------------------------------------------------------|
D|6---------------6---------------6---------------6---------------|
A|------------6-----------6-------------------6-------------------|
E|----------------------------------------------------------------|

G|8---------------8---------------8---------------8---------------|
D|------------8-----------8-------------------8-----------8---\---|
A|----------------------------------------------------------------|
E|----------------------------------------------------------------|

G|----------------------------------------------------------------|.
D|6---------------6---------------6---------------6---------------|.
A|------------6-----------6-------------------6-----------6-------|.
E|----------------------------------------------------------------|.
                                                                   . X2
G|8---------------8---------------8---------------8---------------|.
D|------------8-----------8-------------------8-----------8---\---|.
A|----------------------------------------------------------------|.
E|----------------------------------------------------------------|.

G|----------------------------------------------------------------|
D|6---------------6---------------6---------------6---------------|
A|------------6-----------6-------------------6-----------6-------|
E|----------------------------------------------------------------|

G|----------------------------------------------------------------|
D|6---------------6---------------6-------------------------------|
A|------------6-----------6---------------------------------------|
E|----------------------------------------------------------------|

0:39

G|----------------------------------------------------------------|.
D|6---------------6---------------6---------------6---------------|.
A|------------6-----------6-------------------6-----------6-------|.
E|----------------------------------------------------------------|.
                                                                   . X2
G|8---------------8---------------8---------------8---------------|.
D|------------8-----------8-------------------8-----------8---\---|.
A|----------------------------------------------------------------|.
E|----------------------------------------------------------------|.

0:53

G|----------------------------------------------------------------|
D|6---------------6---------------6---------------6---------------|
A|------------6-----------6-------------------6-------------------|
E|----------------------------------------------------------------|

G|8---------------8---------------8---------------8---------------|
D|------------8-----------8-------------------8-----------8---\---|
A|----------------------------------------------------------------|
E|----------------------------------------------------------------|

G|----------------------------------------------------------------|
D|6---------------6---------------6---------------6---------------|
A|------------6-----------6-------------------6-----------6-------|
E|----------------------------------------------------------------|

G|----------------------------------------------------------------|
D|6---------------6---------------6-------------------------------|
A|------------6-----------6---------------------------------------|
E|----------------------------------------------------------------|

1:08

G|5---------------5---------------5---------------5-------7-------|
D|------------5-----------5-------------------5-------------------|
A|----------------------------------------------------------------|
E|----------------------------------------------------------------|

G|8---------------8---------------8---------------8-------7-------|
D|------------8-----------8-------------------8-------------------|
A|----------------------------------------------------------------|
E|----------------------------------------------------------------|

G|5---------------5---------------5---------------5---------------|
D|------------5-----------5-------------------5-----------8-------|
A|----------------------------------------------------------------|
E|----------------------------------------------------------------|

G|----------------------------------------------------------------|
D|6---------------6---------------6---------------6-------7-------|
A|------------6-----------6-------------------6-------------------|
E|----------------------------------------------------------------|

G|----------------------------------------------------------------|
D|8---8---8---8---8---8---8---8---8-----------------------8---\---|
A|----------------------------------------------------------------|
E|----------------------------------------------------------------|

1:27

G|----------------------------------------------------------------|
D|6---------------6---------------6---------------6---------------|
A|------------6-----------6-------------------6-----------6-------|
E|----------------------------------------------------------------|

G|8---------------8---------------8---------------8---------------|
D|------------8-----------8-------------------8-----------8---\---|
A|----------------------------------------------------------------|
E|----------------------------------------------------------------|

G|----------------------------------------------------------------|
D|6---------------6---------------6---------------6---------------|
A|------------6-----------6-------------------6-----------6-------|
E|----------------------------------------------------------------|

G|----------------------------------------------------------------|
D|6---------------6---------------6-------------------------------|
A|------------6-----------6---------------------------------------|
E|----------------------------------------------------------------|

1:42

G|5---------------5---------------5---------------5-------7-------|
D|------------5-----------5-------------------5-------------------|
A|----------------------------------------------------------------|
E|----------------------------------------------------------------|

G|8---------------8---------------8---------------8-------7-------|
D|------------8-----------8-------------------8-------------------|
A|----------------------------------------------------------------|
E|----------------------------------------------------------------|

G|5---------------5---------------5---------------5---------------|
D|------------5-----------5-------------------5-----------8-------|
A|----------------------------------------------------------------|
E|----------------------------------------------------------------|

G|----------------------------------------------------------------|
D|6---------------6---------------6---------------6-------7-------|
A|------------6-----------6-------------------6-------------------|
E|----------------------------------------------------------------|

G|----------------------------------------------------------------|
D|8---8---8---8---8---8---8---8---8-----------------------8---\---|
A|----------------------------------------------------------------|
E|----------------------------------------------------------------|

2:00

G|----------------------------------------------------------------|
D|6---------------6---------------6---------------6---------------|
A|------------6-----------6-------------------6-----------6-------|
E|----------------------------------------------------------------|

G|8---------------8---------------8---------------8---------------|
D|------------8-----------8-------------------8-----------8---\---|
A|----------------------------------------------------------------|
E|----------------------------------------------------------------|

G|----------------------------------------------------------------|
D|6---------------6---------------6---------------6---------------|
A|------------6-----------6-------------------6-----------6-------|
E|----------------------------------------------------------------|

G|----------------------------------------------------------------|
D|6---------------6---------------6-------------------------------|
A|------------6-----------6---------------------------------------|
E|----------------------------------------------------------------|

G|----------------------------------------------------------------|
D|6---------------6---------------6---------------6---------------|
A|------------6-----------6-------------------6-----------6-------|
E|----------------------------------------------------------------|

G|--------------------------------|
D|--------------------------------|
A|6-------------------------------|
E|--------------------------------|
Suggest correction
Give kudos to tab author, rate the tab!
1 2 3 4 5
comments
print report bad tab
guest
You may want to rate the tab now too:
select rating
Wanna post a correction for this tab? Suggest correction