Oops, an error
Loading. Please wait.

Catch Us If You Can bass

version 1
version 1

Whole song

Interactive

576 views 3 this week
no commentswrite comment
1 2 3 4 5
2 more votes to show rating
add to favorites
×
Save as Personal and add changes to this tab that will be seen only by you. Learn more ›
×
You can save this tab as Personal to edit and correct it or add notes. All changes will be seen only by you. Learn more »
launch autoscroll
font size
0
reset
guitar tuner
edit
Autoscroll
slow
fast
+/-
esc
set tempo
stop
Author
Catch Us If You Can
The Dave Clark Five
Written by Dave Clark and Lenny Davidson; released as a single with "On The 
Move" as the B-side

Tune your bass one step down

Intro:
F|------ ------ ------ ------|------ ------ ------ ------|
C|---------------------------|---------------------------|
G|---------------------------|---------------------------|
D|5--------------------------|5--------------------------|


Verse:
F|------ ------ ------ ------|------ ------ ------ ------|
C|---------------------------|---------------------------|
G|---------------------------|---------------------------|
D|5--------------------------|5--------------------------|
  Here   come again,          mmmmmmmmmmmmmm,
      they

F|------ ------ ------ ------|------ ------ ------ ------|
C|4--------------------------|---------------------------|
G|---------------------------|---------------------------|
D|---------------------------|5--------------------------|
  catch  if you can,          mmmmmmmmmmmmmm,
      us

F|------ ------ ------ ------|------ ------ ------ ------|
C|---------------------------|---------------------------|
G|---------------------------|---------------------------|
D|5--------------------------|5--------------------------|
  Time   get a  move   on,    mmmmmmmmmmmmmm,
      to

F|------ ------ ------ ------|------ ------ ------ ------|
C|4--------------------------|---------------------------|
G|---------------------------|-------------------------0h|
D|---------------------------|5--------------------------|
  We     yell   all of our might.    Catch  if  you    can,
      will   with                        us
Refrain:
F|------ ------ 4----- ------|------ ------ ------ ------|
C|---------------------4-----|--------------6------------|
G|2----------2---------------|4----------4---------4-----|
D|---------------------------|---------------------------|
                                     catch  if  you    can,
                                         us

F|------ ------ ------ ------|------ ------ ------ ------|
C|---------------------------|4----------4---------4-----|
G|---------------------7-----|--------------4------------|
D|5----------5--5------------|---------------------------|
                                            Catch  if  you
                                                us

F|------ ------ 4----- ------|------ ------ ------ ------|
C|---------------------4-----|--------------6------------|
G|2----------2---------------|4----------4---------4-----|
D|---------------------------|---------------------------|
  can,                               catch  if  you    can.
                                         us

F|------ ------ ------ ------|------ ------ ------ ------|
C|4--------------------------|---------------------------|
G|---------------------------|---------------------------|
D|---------------------------|---------------------------|


Verse:
F|------ ------ ------ ------|------ ------ ------ ------|
C|---------------------------|---------------------------|
G|---------------------------|---------------------------|
D|5--------------------------|5--------------------------|
  Now we got to run,          mmmmmmmmmmmmmm,


F|------ ------ ------ ------|------ ------ ------ ------|
C|4--------------------------|---------------------------|
G|---------------------------|---------------------------|
D|---------------------------|5--------------------------|
  no     time   fun,          mmmmmmmmmmmmmm,
      more   for

F|------ ------ ------ ------|------ ------ ------ ------|
C|---------------------------|---------------------------|
G|---------------------------|---------------------------|
D|5--------------------------|5--------------------------|
  When   getting ang - ry,    mmmmmmmmmmmmmm,
      we're

F|------ ------ ------ ------|------ ------ ------ ------|
C|4--------------------------|---------------------------|
G|---------------------------|-------------------------0h|
D|---------------------------|5--------------------------|
  We     yell   all of our might.    Catch  if  you    can,
      will   with                        us
Refrain:
F|------ ------ 4----- ------|------ ------ ------ ------|
C|---------------------4-----|-----------6---------6-----|
G|2----------2---------------|4--------------------------|
D|---------------------------|---------------------------|
                                     catch  if  you    can,
                                         us

F|------ ------ ------ ------|------ ------ ------ ------|
C|---------------------------|4----------4---------4-----|
G|--------------7------------|--------------4------------|
D|5----------5---------5-----|---------------------------|
                                            Catch  if  you
                                                us

F|4----- ----4- 4----- ------|------ ------ ------ ------|
C|---------------------4-----|--------------6------------|
G|---------------------------|4----------4---------4-----|
D|---------------------------|---------------------------|
  can,                               catch  if  you    can.
                                         us

F|------ ------ ------ ------|------ ------ ------ ------|
C|4--------------------------|---------------------------|
G|---------------------------|---------------------------|
D|---------------------------|---------------------------|


Break (solo):
F|------ ------ ------ ------|------ ------ ------ ------|
C|---------------------4-----|-------7------4------------|
G|-------4------7------------|5--------------------5-----|
D|5--------------------------|---------------------------|



F|------ ------ ------ ------|------ ------ ------ ------|
C|---------------------------|---------------------------|
G|-------4------7------4-----|7------5------4------------|
D|5--------------------------|---------------------7-----|



F|------ ------ ------ ------|------ ------ ------ ------|
C|---------------------------|-------7------4------------|
G|-------7------4------------|5--------------------5-----|
D|5--------------------5-----|---------------------------|



F|------ ------ ------ ------|------ ------ ------ ------|
C|---------------------------|---------------------------|
G|--------------7------7-----|--------------7------------|
D|5------5-------------------|5------5-------------5-----|



F|------ ------ ------ ------|------ ------ ------ ------|
C|---------------------4-----|-------7------4------------|
G|-------4------7------------|5--------------------5-----|
D|5--------------------------|---------------------------|



F|------ ------ ------ ------|------ ------ ------ ------|
C|---------------------------|---------------------------|
G|-------4------7------4-----|7------5------4------------|
D|5--------------------------|---------------------7-----|



F|------ ------ ------ ------|------ ------ ------ ------|
C|---------------------------|-------7------4------------|
G|-------4------7------4-----|5--------------------5-----|
D|5--------------------------|---------------------------|



F|------ ------ ------ ------|------ ------ ------ ------|
C|---------------------------|---------------------------|
G|-------7-------------------|---------------------------|
D|5-------------0------0-----|5--------------------------|



F|------ ------ ------ ------|
C|---------------------------|
G|---------------------------|
D|5--------------------------|


Verse:
F|------ ------ ------ ------|------ ------ ------ ------|
C|---------------------------|---------------------------|
G|---------------------------|---------------------------|
D|5--------------------------|5--------------------------|
  Here   come again,          mmmmmmmmmmmmmm,
      they

F|------ ------ ------ ------|------ ------ ------ ------|
C|4--------------------------|---------------------------|
G|---------------------------|---------------------------|
D|---------------------------|5--------------------------|
  catch  if you can,          mmmmmmmmmmmmmm,
      us

F|------ ------ ------ ------|------ ------ ------ ------|
C|---------------------------|---------------------------|
G|---------------------------|---------------------------|
D|5--------------------------|5--------------------------|
  Time   get a  move   on,    mmmmmmmmmmmmmm,
      to

F|------ ------ ------ ------|------ ------ ------ ------|
C|4--------------------------|---------------------------|
G|---------------------------|-------------------------0h|
D|---------------------------|5--------------------------|
  We     yell   all of our might.    Catch  if  you    can,
      will   with                        us
Refrain:
F|------ 4----- ------ ------|------ ------ ------ ------|
C|--------------4------------|-----------6--6------------|
G|2--------------------2-----|4--------------------4-----|
D|---------------------------|---------------------------|
                                     catch  if  you    can,
                                         us

F|------ ------ ------ ------|------ ------ ------ ------|
C|---------------------------|4----------4---------4-----|
G|--------------7------------|--------------4------------|
D|5----------5---------5-----|---------------------------|
                                            Catch  if  you
                                                us

F|------ ------ ------ ------|------ ------ ------ ------|
C|--------------4------------|--------------6------------|
G|2----------2---------2-----|4----------4---------4-----|
D|---------------------------|---------------------------|
  can,                               catch  if  you    can.
                                         us

F|------ ------ ------ ------|------ ------ ------ ------|
C|4----------4--4------------|4----------4--4------------|
G|---------------------------|---------------------------|
D|---------------------------|---------------------------|


Outro:
F|------ ------ ------ ------|------ ------ ------ ------|
C|4----------4--4------------|---------------------------|
G|---------------------------|---------------------------|
D|---------------------------|5---5----5----5------5-----|

Please e-mail me for any corrections, or write a comment.

            
            
Suggest correction
Creating personal tab
Creating personal tab
You can edit any tab online and save it as your Personal.

You can edit, replace or remove any tab part or add personal notes – all changes will be seen only by you.

Personal tabs can be accessed anytime from any device, even offline.
Learn more »
Give kudos to tab author, rate the tab!
1 2 3 4 5
comments
print report bad tab
guest
You may want to rate the tab now too:
select rating
Wanna post a correction for this tab? Suggest correction