Oops, an error
Loading. Please wait.

Do You Love Me bass

3,072 views 1 this week
no commentswrite comment
1 2 3 4 5
2 more votes to show rating
add to favorites
×
Save as Personal and add changes to this tab that will be seen only by you. Learn more ›
×
You can save this tab as Personal to edit and correct it or add notes. All changes will be seen only by you. Learn more »
launch autoscroll
font size
0
reset
guitar tuner
edit
Autoscroll
slow
fast
+/-
esc
set tempo
stop
Author
Do You Love Me?
The Dave Clark Five
Written by Berry Gordy Jr.; released as a single with "Doo Dah" in the UK 
and "Chaquita" in the USA as B-sides.

Intro:
G|------- ------- ------- -------|------- ------- ------- -------|
D|-------------------------------|-------------------------------|
A|-------------------------------|----10--10--10--10--10--12\----|
E|-------------------------------|-------------------------------|
                                                      Well, do you

Refrain:
G|------- ------- ------- -------|------- ------- ------- -------|
D|--------4---7-----------4---7--|-------------------------------|
A|5---------------5--------------|--------2---5-----------4---7--|
E|-------------------------------|3---------------5--------------|
  love        me,                                     well, do you
                         (I   can really      move)

G|------- ------- ------- -------|------- ------- ------- -------|
D|--------4---7-----------4---7--|-------------------------------|
A|5---------------5--------------|--------2---5-----------4---7--|
E|-------------------------------|3---------------5--------------|
  love        me?                                     Well, do you
                         (I'm     in  the     groove)

G|------- ------- ------- -------|------- ------- ------- -------|
D|--------4---7-----------4---7--|-------------------------------|
A|5---------------5--------------|--------2---5-----------4---7--|
E|-------------------------------|3---------------5--------------|
  love        me
                                 (Do      you love    me?)

G|------- ------- ------- -------|------- ------- ------- -------|
D|-------------------------------|-------------------------------|
A|--------2---2---5---5---2---5--|----------------5---5-------7--|
E|3---3--------------------------|3---3---3---6-----------6------|
  now                     that    I                       can


G|------- ------- ------- -------|------- ------- ------- -------|
D|7---7---7---7---7---7---7---7--|7---7---7---7---7---7---7---7--|
A|-------------------------------|-------------------------------|
E|-------------------------------|-------------------------------|
  dance?


G|------- ------- ------- -------|------- ------- ------- -------|
D|7---7---7---7---7---7---7---7--|7------------------------------|
A|-------------------------------|------------------------12\----|
E|-------------------------------|-------------------------------|
                                          Watch me now,   oh,

Verse:
G|------- ------- ------- -------|------- ------- ------- -------|
D|--------4---7-----------4---7--|-------------------------------|
A|5---------------5--------------|--------2---5-----------4---7--|
E|-------------------------------|3---------------5--------------|
                      I   said I'll work it out,  ba  -   by,
 (Work    it  all)

G|------- ------- ------- -------|------- ------- ------- -------|
D|--------4---7-----------4---7--|-------------------------------|
A|5---------------5--------------|--------2---5-----------4---7--|
E|-------------------------------|3---------------5--------------|
                      Ah,     you're driving me   cra  -  zy,
 (Work    it  all)

G|------- ------- ------- -------|------- ------- ------- -------|
D|--------4---7-----------4---7--|-------------------------------|
A|5---------------5--------------|--------2---5-----------4---7--|
E|-------------------------------|3---------------5--------------|
                      Oh, with a little bit of soul   now!
 (Work    it  all)

G|------- ------- ------- -------|------- ------- ------- -------|
D|-------------------------------|-------------------------------|
A|-------------------------------|----10--10--10--10--10--12\----|
E|-------------------------------|-------------------------------|
                                                  Mmm, now I can


G|------- ------- ------- -------|------- ------- ------- -------|
D|--------4---7-----------4---7--|-------------------------------|
A|5---------------5--------------|--------2---5-----------4---7--|
E|-------------------------------|3---------------5--------------|
  do      the Blues,                                  and I   can
                                 (do      the blues)

G|------- ------- ------- -------|------- ------- ------- -------|
D|--------4---7-----------4---7--|-------------------------------|
A|5---------------5--------------|--------2---5-----------4---7--|
E|-------------------------------|3---------------5--------------|
  do      the     twist,                              I   said, now
                                 (do      the twist)

G|------- ------- ------- -------|------- ------- ------- -------|
D|--------4---7-----------4---7--|-------------------------------|
A|5---------------5--------------|--------2---5-----------4---7--|
E|-------------------------------|3---------------5--------------|
  tell    me,     ba- by,                     mmm,    now do  you
                                 (tell    me, ba  -   by)

G|------- ------- ------- -------|------- ------- ------- -------|
D|--------4---7-----------4---7--|-------------------------------|
A|5---------------5--------------|--------2---5-----------4---7--|
E|-------------------------------|3---------------5--------------|
  like it like    this?                               Woah,
                                 (like it like    this)

G|------- ------- ------- -------|------- ------- ------- -------|
D|7---7---7---7---7---7---7---7--|7---7---7---7---7---7---7---7--|
A|-------------------------------|-------------------------------|
E|-------------------------------|-------------------------------|
  tell    me
                                 (tell    me,

G|------- ------- ------- -------|------- ------- ------- -------|
D|7---7---7---7---7---7---7---7--|7------------------------------|
A|-------------------------------|------------------------12\----|
E|-------------------------------|-------------------------------|
                                                  Aah,    do  you
  tell    me)
Refrain:
G|------- ------- ------- -------|------- ------- ------- -------|
D|--------4---7-----------4---7--|-------------------------------|
A|5---------------5--------------|--------2---5-----------4---7--|
E|-------------------------------|3---------------5--------------|
  love        me,                                     well, do you
                         (I   can really      move)

G|------- ------- ------- -------|------- ------- ------- -------|
D|--------4---7-----------4---7--|-------------------------------|
A|5---------------5--------------|--------2---5-----------4---7--|
E|-------------------------------|3---------------5--------------|
  love        me?                                     Well, do you
                         (I'm     in  the     groove)

G|------- ------- ------- -------|------- ------- ------- -------|
D|--------4---7-----------4---7--|-------------------------------|
A|5---------------5--------------|--------2---5-----------4---7--|
E|-------------------------------|3---------------5--------------|
  love        me
                                 (Do      you love    me?)

G|------- ------- ------- -------|------- ------- ------- -------|
D|-------------------------------|-------------------------------|
A|--------2---2---5---5---2---5--|----------------5---5-------7--|
E|3---3--------------------------|3---3---6---6-----------6------|
  now                     that    I                       can


G|------- ------- ------- -------|------- ------- ------- -------|
D|7---7---7---7---7---7---7---7--|7---7---7---7---7---7---7---7--|
A|-------------------------------|-------------------------------|
E|-------------------------------|-------------------------------|
  dance?


G|------- ------- ------- -------|------- ------- ------- -------|
D|7---7---7---7---7---7---7---7--|7------------------------------|
A|-------------------------------|------------------------12\----|
E|-------------------------------|-------------------------------|
                                          Watch me now,   oh,

Verse:
G|------- ------- ------- -------|------- ------- ------- -------|
D|--------4---7-----------4---7--|-------------------------------|
A|5---------------5--------------|--------2---5-----------4---7--|
E|-------------------------------|3---------------5--------------|
                      I   said I'll work it all,  ba  -   by,
 (Work    it  all)

G|------- ------- ------- -------|------- ------- ------- -------|
D|--------4---7-----------4---7--|-------------------------------|
A|5---------------5--------------|--------2---5-----------4---7--|
E|-------------------------------|3---------------5--------------|
                  Mmm,        you're driving me   cra  -  zy,
 (Work    it  all)

G|------- ------- ------- -------|------- ------- ------- -------|
D|--------4---7-----------4---7--|-------------------------------|
A|5---------------5--------------|--------2---5-----------4---7--|
E|-------------------------------|3---------------5--------------|
                      Oh, with a little bit of soul   now!
 (Work    it  all)

G|------- ------- ------- -------|------- ------- ------- -------|
D|-------------------------------|-------------------------------|
A|-------------------------------|----10--10--10--10--10--12\----|
E|-------------------------------|-------------------------------|
                                                      Now I   can


G|------- ------- ------- -------|------- ------- ------- -------|
D|--------4---7-----------4---7--|-------------------------------|
A|5---------------5--------------|--------2---5-----------4---7--|
E|-------------------------------|3---------------5--------------|
  do      the Blues,                              mmm,    I   can
                                 (do      the blues)

G|------- ------- ------- -------|------- ------- ------- -------|
D|--------4---7-----------4---7--|-------------------------------|
A|5---------------5--------------|--------2---5-----------4---7--|
E|-------------------------------|3---------------5--------------|
  do      the     twist,                              I   said, now
                                 (do      the twist)

G|------- ------- ------- -------|------- ------- ------- -------|
D|--------4---7-----------4---7--|-------------------------------|
A|5---------------5--------------|--------2---5-----------4---7--|
E|-------------------------------|3---------------5--------------|
  tell    me,     ba- by,                             well, do you
                                 (tell    me, ba  -   by)

G|------- ------- ------- -------|------- ------- ------- -------|
D|--------4---7-----------4---7--|-------------------------------|
A|5---------------5--------------|--------2---5-----------4---7--|
E|-------------------------------|3---------------5--------------|
  like it like    this?                               Woah,
                                 (like it like    this)

G|------- ------- ------- -------|------- ------- ------- -------|
D|7---7---7---7---7---7---7---7--|7---7---7---7---7---7---7---7--|
A|-------------------------------|-------------------------------|
E|-------------------------------|-------------------------------|
  tell    me
                                 (tell    me,

G|------- ------- ------- -------|------- ------- ------- -------|
D|7---7---7---7---7---7---7---7--|7------------------------------|
A|-------------------------------|------------------------12\----|
E|-------------------------------|-------------------------------|
                                              Aah,    well, do you
  tell    me)
Refrain:
G|------- ------- ------- -------|------- ------- ------- -------|
D|--------4---7-----------4---7--|-------------------------------|
A|5---------------5--------------|--------2---5-----------4---7--|
E|-------------------------------|3---------------5--------------|
  love        me,                                     well, do you
                         (I   can really      move)

G|------- ------- ------- -------|------- ------- ------- -------|
D|--------4---7-----------4---7--|-------------------------------|
A|5---------------5--------------|--------2---5-----------4---7--|
E|-------------------------------|3---------------5--------------|
  love        me?                                     Well, do you
                         (I'm     in  the     groove)

G|------- ------- ------- -------|------- ------- ------- -------|
D|--------4---7-----------4---7--|-------------------------------|
A|5---------------5--------------|--------2---5-----------4---7--|
E|-------------------------------|3---------------5--------------|
  love        me
                                 (Do      you love    me?)

G|------- ------- ------- -------|------- ------- ------- -------|
D|-------------------------------|-------------------------------|
A|--------2---2---5---5---2---5--|----------------5---5-------7--|
E|3---3--------------------------|3---3---6---6-----------6------|
  now                     that    I                       can


G|------- ------- ------- -------|------- ------- ------- -------|
D|7---7---7---7---7---7---7---7--|7---7---7---7---7---7---7---7--|
A|-------------------------------|-------------------------------|
E|-------------------------------|-------------------------------|
  dance?


G|------- ------- ------- -------|------- ------- ------- -------|
D|7---7---7---7---7---7---7---7--|7------------------------------|
A|-------------------------------|------------------------12\----|
E|-------------------------------|-------------------------------|
                                                  Aah,    do  you

Refrain:
G|------- ------- ------- -------|------- ------- ------- -------|
D|--------4---7-----------4---7--|-------------------------------|
A|5---------------5--------------|--------2---5-----------4---7--|
E|-------------------------------|3---------------5--------------|
  love        me,                                     well, do you
                         (I   can really      move)

G|------- ------- ------- -------|------- ------- ------- -------|
D|--------4---7-----------4---7--|-------------------------------|
A|5---------------5--------------|--------2---5-----------4---7--|
E|-------------------------------|3---------------5--------------|
  love        me?                                     Well, do you
                         (I'm     in  the     groove)

G|------- ------- ------- -------|------- ------- ------- -------|
D|--------4---7-----------4---7--|-------------------------------|
A|5---------------5--------------|--------2---5-----------4---7--|
E|-------------------------------|3---------------5--------------|
  love        me
                                 (Do      you love    me?)
fade out...

Please e-mail me for any corrections, or write a comment.
Suggest correction
Creating personal tab
Creating personal tab
You can edit any tab online and save it as your Personal.

You can edit, replace or remove any tab part or add personal notes – all changes will be seen only by you.

Personal tabs can be accessed anytime from any device, even offline.
Learn more »
Give kudos to tab author, rate the tab!
1 2 3 4 5
comments
print report bad tab
guest
You may want to rate the tab now too:
select rating
Wanna post a correction for this tab? Suggest correction