Oops, an error
Loading. Please wait.

Give Me Love bass

1,344 views 1 this week
no commentswrite comment
1 2 3 4 5
1 last vote to show rating
add to favorites
×
Save as Personal and add changes to this tab that will be seen only by you. Learn more ›
×
You can save this tab as Personal to edit and correct it or add notes. All changes will be seen only by you. Learn more »
launch autoscroll
font size
0
reset
guitar tuner
edit
Autoscroll
slow
fast
+/-
esc
set tempo
stop
Author
Give Me Love
The Dave Clark Five
Written by Dave Clark and Denis Payton; released on the album "Coast To 
Coast", also under the title "I Can't Stop Loving You".

Intro:
G|------- ------- ------- -------|------- ------- ------- -------|
D|-------------------------------|-------------------------------|
A|--------------------5----------|--------------------5----------|
E|5-------5-------5--------------|5-------5-------5--------------|



G|------- ------- ------- -------|------- ------- ------- -------|
D|-------------------------------|-------------------------------|
A|--------------------5----------|--------------------5----------|
E|5-------5-------5--------------|5-------5-------5-----------3--|
                                                              I'll

Verse:
G|------- ------- ------- -------|------- ------- ------- -------|
D|-------------------------------|-------------------------------|
A|--------------------5----------|--------------------5----------|
E|5-------5-------5--------------|5-------5-------5--------------|
  do                                      a - nything you want me


G|------- ------- ------- -------|------- ------- ------- -------|
D|-------------------------------|-------------------------------|
A|--------------------5----------|--------------------5----------|
E|5-------5-------5--------------|5-------5-------5-----------5\-|
  to,                                         We'll never be  a-


G|------- ------- ------- -------|------- ------- ------- -------|
D|-------------------------------|-------------------------------|
A|-------------------------------|-------------------------------|
E|1-------1-------1---1----------|1-------1-------1---1-------1--|
  part,                                       I can't stop loving


G|------- ------- ------- -------|------- ------- ------- -------|
D|-------------------------------|-------------------------------|
A|-------------------------------|-------------------------------|
E|0---0---0---0---0---0---0---0--|0---0---0---0---0---0---0---0-/|
  you.

Verse:
G|------- ------- ------- -------|------- ------- ------- -------|
D|-------------------------------|-------------------------------|
A|--------------------5----------|--------------------5----------|
E|5-------5-------5--------------|5-------5-------5--------------|
  Say,                                    when you see me walk a-


G|------- ------- ------- -------|------- ------- ------- -------|
D|-------------------------------|-------------------------------|
A|--------------------5----------|--------------------5----------|
E|5-------5-------5--------------|5-------5-------5-----------5\-|
  way:                                       "Come on, come on, come


G|------- ------- ------- -------|------- ------- ------- -------|
D|-------------------------------|-------------------------------|
A|-------------------------------|-------------------------------|
E|1-------1-------1---1-------1--|1-------1-------1---1-------1--|
  back        to  me,                         I can't stop loving


G|------- ------- ------- -------|------- ------- ------- -------|
D|-------------------------------|-------------------------------|
A|-------------------------------|-------------------------------|
E|0---0---0---0---0---0---0---0--|0---0---0---0---0---0---0---0--|
  you."

Bridge:
G|------- ------- ------- -------|------- ------- ------- -------|
D|-------------------------------|-------------------------------|
A|-------------------------------|-------------------------------|
E|1-----------1---1---1----------|1-------1-------1-------1---1/-|
          The     way that    you tell    me


G|------- ------- ------- -------|------- ------- ------- -------|
D|-------------------------------|-------------------------------|
A|----------------5-------5------|-------------------------------|
E|5-------5----------------------|5-------5-------5-------5\-----|
  I'm the on- ly  one you'll ever love,


G|------- ------- ------- -------|------- ------- ------- -------|
D|-------------------------------|-------------------------------|
A|-------------------------------|-------------------------------|
E|1-----------1---1-------1---1--|1-------1---1---1-------1---1--|
          I'll    ne- ver stop    saying             "Give    me


G|------- ------- ------- -------|------- ------- ------- -------|
D|-------------------------------|-------------------------------|
A|-------------------------------|-------------------------------|
E|0---0---0---0---0---0---0---0--|0---0---0---0---0---0---0---0--|
  love."


G|------- ------- ------- -------|------- ------- ------- -------|
D|-------------------------------|-------------------------------|
A|-------------------------------|-------------------------------|
E|0---0---0---0---0---0---0---0--|0---0---0---0---0---0---0---0-/|
                                                              I

Verse:
G|------- ------- ------- -------|------- ------- ------- -------|
D|-------------------------------|-------------------------------|
A|--------------------5----------|--------------------5----------|
E|5-------5-------5--------------|5-------5-------5--------------|
  see                                     that's  way it's got to
                                              the

G|------- ------- ------- -------|------- ------- ------- -------|
D|-------------------------------|-------------------------------|
A|--------------------5----------|--------------------5----------|
E|5-------5-------5--------------|5-------5-------5-----------5\-|
  be,                                         I'll never  see you


G|------- ------- ------- -------|------- ------- ------- -------|
D|-------------------------------|-------------------------------|
A|-------------------------------|-------------------------------|
E|1-------1-------1---1-------1--|1-------1-------1---1-------1--|
  walk        a - way,                        I can't stop loving


G|------- ------- ------- -------|------- ------- ------- -------|
D|-------------------------------|-------------------------------|
A|-------------------------------|-------------------------------|
E|0---0---0---0---0---0---0---0--|0---0---0---0---0---0---0---0--|
  you.

Bridge:
G|------- ------- ------- -------|------- ------- ------- -------|
D|-------------------------------|-------------------------------|
A|-------------------------------|-------------------------------|
E|1-------1-------1-------1---1--|1-------1-------1-------1---1/-|
          The     way that    you tell    me


G|------- ------- ------- -------|------- ------- ------- -------|
D|-------------------------------|-------------------------------|
A|----------------5-------5------|-------------------------------|
E|5-------5----------------------|5-------5-------5-------5---5\-|
  I'm the on- ly  one you'll ever love,


G|------- ------- ------- -------|------- ------- ------- -------|
D|-------------------------------|-------------------------------|
A|-------------------------------|-------------------------------|
E|1-------1-------1-------1---1--|1-------1-------1-------1---1--|
          I'll    ne- ver stop    saying             "Give    me


G|------- ------- ------- -------|------- ------- ------- -------|
D|-------------------------------|-------------------------------|
A|-------------------------------|-------------------------------|
E|0---0---0---0---0---0---0---0--|0---0---0---0---0---0---0---0--|
  love."


G|------- ------- ------- -------|------- ------- ------- -------|
D|-------------------------------|-------------------------------|
A|-------------------------------|-------------------------------|
E|0---0---0---0---0---0---0---0--|0---0---0---0---0---0---0---0/-|
                                                              I'll

Verse:
G|------- ------- ------- -------|------- ------- ------- -------|
D|-------------------------------|-------------------------------|
A|--------------------5----------|--------------------5----------|
E|5-------5-------5--------------|5-------5-------5--------------|
  do                                      a - nything you want me


G|------- ------- ------- -------|------- ------- ------- -------|
D|-------------------------------|-------------------------------|
A|--------------------5----------|--------------------5----------|
E|5-------5-------5--------------|5-------5-------5-----------5\-|
  to,                                         We'll never be  a-


G|------- ------- ------- -------|------- ------- ------- -------|
D|-------------------------------|-------------------------------|
A|-------------------------------|-------------------------------|
E|1-------1-------1---1-------1--|1-------1-------1---1-------1--|
  part,                                       I can't stop loving


G|------- ------- ------- -------|------- ------- ------- -------|
D|-------------------------------|-------------------------------|
A|-------------------------------|-------------------------------|
E|0---0---0---0---0---0---0---0--|0---0---0---0---0---0---0---0/-|
  you.

Verse:
G|------- ------- ------- -------|------- ------- ------- -------|
D|-------------------------------|-------------------------------|
A|--------------------5----------|--------------------5----------|
E|5-------5-------5--------------|5-------5-------5--------------|
  Say,                                    when you see me walk a-


G|------- ------- ------- -------|------- ------- ------- -------|
D|-------------------------------|-------------------------------|
A|--------------------5----------|--------------------5----------|
E|5-------5-------5--------------|5-------5-------5-----------5\-|
  way:                                       "Come on, come on, come


G|------- ------- ------- -------|------- ------- ------- -------|
D|-------------------------------|-------------------------------|
A|-------------------------------|-------------------------------|
E|1-------1-------1---1-------1--|1-------1-------1---1-------1--|
  back        to  me,                         I can't stop loving


G|------- ------- ------- -------|------- ------- ------- -------|
D|-------------------------------|-------------------------------|
A|-------------------------------|-------------------------------|
E|0---0---0---0---0---0---0---0--|0---0---0---0---0---0---0---0--|
  you."                                                       I'll

Outro:
G|------- ------- ------- -------|------- ------- ------- -------|
D|-------------------------------|-------------------------------|
A|--------------------5----------|--------------------5----------|
E|5-------5-------5--------------|5-------5-------5--------------|
  do,                             do,


G|------- ------- ------- -------|------- ------- ------- -------|
D|-------------------------------|-------------------------------|
A|--------------------5----------|--------------------5----------|
E|5-------5-------5--------------|5-------5-------5--------------|
  do,                             do.


G|------- ------- ------- -------|------- ------- ------- -------|
D|-------------------------------|-------------------------------|
A|-------------------------------|-------------------------------|
E|0---0---0---0---0---0---0---0--|0---0---0---0---0---0---0---0--|



G|------- ------- ------- -------|------- ------- ------- -------|
D|-------------------------------|-------------------------------|
A|-------------------------------|-------------------------------|
E|0---0---0---0---0---0---0---0--|5------------------------------|

Please e-mail me for any corrections, or write a comment.

            
            
Suggest correction
Creating personal tab
Creating personal tab
You can edit any tab online and save it as your Personal.

You can edit, replace or remove any tab part or add personal notes – all changes will be seen only by you.

Personal tabs can be accessed anytime from any device, even offline.
Learn more »
Give kudos to tab author, rate the tab!
1 2 3 4 5
comments
print report bad tab
guest
You may want to rate the tab now too:
select rating
Wanna post a correction for this tab? Suggest correction