Oops, an error
Loading. Please wait.

Girl Hunt Bass Tab

13 views 1 this week
no commentswrite comment
1 2 3 4 5
3 more votes to show rating
add to favorites
launch autoscroll
font size
0
reset
guitar tuner
Autoscroll
slow
fast
+/-
esc
set tempo
stop
Help us to improve Ultimate-Guitar.com Take our survey!
×
Author
Difficulty

Verse 
G----------------------------------------------------------------------------------------------------|
D----------------------------------------------------------------------------------------------------|
A-----------------------------------------------------------------7-7-7-7-7-7-7-7--9-9-9-9-9-9-9-9-9-|
E-7-7-7-7-7-7-7-7-7-7-7-7-7-7-7-7-7-7-7-7-7-7-7-7-7-7-7-7-7-7-7-7------------------------------------|

Chorus ("I'm Looking For A Girl...")
G----------------------------------------------------------------------|
D----------------------------------------------------------------------|
A-------------------7-7--7---9-9--9-------------------7-7--7---9-9-9-9-|
E-7-7--7---4-4--4-------------------7-7--7---4-4--4--------------------|

Verse 
G----------------------------------------------------------------------------------------------------|
D----------------------------------------------------------------------------------------------------|
A-----------------------------------------------------------------7-7-7-7-7-7-7-7--9-9-9-9-9-9-9-9-9-|
E-7-7-7-7-7-7-7-7-7-7-7-7-7-7-7-7-7-7-7-7-7-7-7-7-7-7-7-7-7-7-7-7------------------------------------|

Chorus ("I'm Looking For A Girl...")
G----------------------------------------------------------------------|
D----------------------------------------------------------------------|
A-------------------7-7--7---9-9--9-------------------7-7--7---9-9-9-9-|
E-7-7--7---4-4--4-------------------7-7--7---4-4--4--------------------|

Bridge ("I'm Looking In New Mexico...")
G-----------------------------------------------------------------|
D-----------------------------------------------------------------|
A-7-7-7-7-7-7-7-7-----------------7-7-7-7-7-7-7-7-9-9-9-9-9-9-9-9-|
E-----------------7-7-7-7-7-7-7-7---------------------------------|

Verse 
G----------------------------------------------------------------------------------------------------|
D----------------------------------------------------------------------------------------------------|
A-----------------------------------------------------------------7-7-7-7-7-7-7-7--9-9-9-9-9-9-9-9-9-|
E-7-7-7-7-7-7-7-7-7-7-7-7-7-7-7-7-7-7-7-7-7-7-7-7-7-7-7-7-7-7-7-7------------------------------------|

Outro
G---------------------------------------------------------------------|
D---------------------------------------------------------------------|
A----------------------------7-7--7-------------------7-7--7---9-9--9-|
E-7-7--7---4-4--4---7-7--7----------7-7--7---4-4--4-------------------|

G---------------------------------------------------------------------|
D---------------------------------------------------------------------|
A-------------------7-7--7---9-9--9-------------------7-7--7---9-9--9-|
E-7-7--7---4-4--4-------------------7-7--7---4-4--4-------------------|

G---------------------------------------------------------------------|
D---------------------------------------------------------------------|
A-------------------7-7--7---9-9--9-------------------7-7--7---9-9--9-|
E-7-7--7---4-4--4-------------------7-7--7---4-4--4-------------------|
Suggest correction
Give kudos to tab author, rate the tab!
1 2 3 4 5
comments
print report bad tab
guest
You may want to rate the tab now too:
select rating
Wanna post a correction for this tab? Suggest correction