Oops, an error
Loading. Please wait.

Girl Hunt Tab

1 view 1 this week
no commentswrite comment
1 2 3 4 5
3 more votes to show rating
add to favorites
launch autoscroll
font size
0
reset
how to read this tab
guitar tuner
Autoscroll
slow
fast
+/-
esc
set tempo
stop
Help us to improve Ultimate-Guitar.com Take our survey!
×
[Verse]
e|------------------------------------------------------------------7-7-7-7-7-7-7-7--9-9-9-9-9-9-9-9-9--|
B|------------------------------------------------------------------9-9-9-9-9-9-9-9--111111111111111111-|
G|------------------------------------------------------------------9-9-9-9-9-9-9-9--111111111111111111-|
D|-9-9-9-9-9-9-9-9-9-9-9-9-9-9-9-9-9-9-9-9-9-9-9-9-9-9-9-9-9-9-9-9--9-9-9-9-9-9-9-9--111111111111111111-|
A|-9-9-9-9-9-9-9-9-9-9-9-9-9-9-9-9-9-9-9-9-9-9-9-9-9-9-9-9-9-9-9-9--7-7-7-7-7-7-7-7--9-9-9-9-9-9-9-9-9--|
E|-7-7-7-7-7-7-7-7-7-7-7-7-7-7-7-7-7-7-7-7-7-7-7-7-7-7-7-7-7-7-7-7--------------------------------------|

[Chorus]
("I'm Looking For A Girl...")
e|-------------------7-7--7---9-9--9--------------------7-7--7---9-9-9-9--|
B|-------------------9-9--9---1111-11-------------------9-9--9---1111111--|
G|-------------------9-9--9---1111-11-------------------9-9--9---1111111--|
D|-9-9--9---6-6--6---9-9--9---1111-11-9-9--9---6-6--6---9-9--9---1111111--|
A|-9-9--9---6-6--6---7-7--7---9-9--9--9-9--9---6-6--6---7-7--7---9-9-9-9--|
E|-7-7--7---4-4--4--------------------7-7--7---4-4--4---------------------|

[Verse]
e|------------------------------------------------------------------7-7-7-7-7-7-7-7--9-9-9-9-9-9-9-9-9--|
B|------------------------------------------------------------------9-9-9-9-9-9-9-9--111111111111111111-|
G|------------------------------------------------------------------9-9-9-9-9-9-9-9--111111111111111111-|
D|-9-9-9-9-9-9-9-9-9-9-9-9-9-9-9-9-9-9-9-9-9-9-9-9-9-9-9-9-9-9-9-9--9-9-9-9-9-9-9-9--111111111111111111-|
A|-9-9-9-9-9-9-9-9-9-9-9-9-9-9-9-9-9-9-9-9-9-9-9-9-9-9-9-9-9-9-9-9--7-7-7-7-7-7-7-7--9-9-9-9-9-9-9-9-9--|
E|-7-7-7-7-7-7-7-7-7-7-7-7-7-7-7-7-7-7-7-7-7-7-7-7-7-7-7-7-7-7-7-7--------------------------------------|

[Chorus]
("I'm Looking For A Girl...")
e|-------------------7-7--7---9-9--9--------------------7-7--7---9-9-9-9--|
B|-------------------9-9--9---1111-11-------------------9-9--9---1111111--|
G|-------------------9-9--9---1111-11-------------------9-9--9---1111111--|
D|-9-9--9---6-6--6---9-9--9---1111-11-9-9--9---6-6--6---9-9--9---1111111--|
A|-9-9--9---6-6--6---7-7--7---9-9--9--9-9--9---6-6--6---7-7--7---9-9-9-9--|
E|-7-7--7---4-4--4--------------------7-7--7---4-4--4---------------------|

[Bridge]
("I'm Looking In New Mexico...")
e|-7-7-7-7-7-7-7-7--2-2-2-2-2-2-2-2--7-7-7-7-7-7-7-7--9-9-9-9-9-9-9-9--|
B|-9-9-9-9-9-9-9-9--4-4-4-4-4-4-4-4--9-9-9-9-9-9-9-9--1111111111111111-|
G|-9-9-9-9-9-9-9-9--4-4-4-4-4-4-4-4--9-9-9-9-9-9-9-9--1111111111111111-|
D|-9-9-9-9-9-9-9-9--4-4-4-4-4-4-4-4--9-9-9-9-9-9-9-9--1111111111111111-|
A|-7-7-7-7-7-7-7-7--2-2-2-2-2-2-2-2--7-7-7-7-7-7-7-7--9-9-9-9-9-9-9-9--|
E|---------------------------------------------------------------------|

[Verse]
e|------------------------------------------------------------------7-7-7-7-7-7-7-7--9-9-9-9-9-9-9-9-9--|
B|------------------------------------------------------------------9-9-9-9-9-9-9-9--111111111111111111-|
G|------------------------------------------------------------------9-9-9-9-9-9-9-9--111111111111111111-|
D|-9-9-9-9-9-9-9-9-9-9-9-9-9-9-9-9-9-9-9-9-9-9-9-9-9-9-9-9-9-9-9-9--9-9-9-9-9-9-9-9--111111111111111111-|
A|-9-9-9-9-9-9-9-9-9-9-9-9-9-9-9-9-9-9-9-9-9-9-9-9-9-9-9-9-9-9-9-9--7-7-7-7-7-7-7-7--9-9-9-9-9-9-9-9-9--|
E|-7-7-7-7-7-7-7-7-7-7-7-7-7-7-7-7-7-7-7-7-7-7-7-7-7-7-7-7-7-7-7-7--------------------------------------|

[Outro]
e|----------------------------7-7--7-------------------7-7--7---9-9--9--|
B|----------------------------9-9--9-------------------9-9--9---111--11-|
G|----------------------------9-9--9-------------------9-9--9---111--11-|
D|-9-9--9---6-6--6---9-9--9---9-9--9-9-9--9---6-6--6---9-9--9---111--11-|
A|-9-9--9---6-6--6---9-9--9---7-7--7-9-9--9---6-6--6---7-7--7---9-9--9--|
E|-7-7--7---4-4--4---7-7--7----------7-7--7---4-4--4--------------------|

e|-------------------7-7--7---9-9--9--------------------7-7--7---9-9--9--|
B|-------------------9-9--9---1111-11-------------------9-9--9---1111-11-|
G|-------------------9-9--9---1111-11-------------------9-9--9---1111-11-|
D|-9-9--9---6-6--6---9-9--9---1111-11-9-9--9---6-6--6---9-9--9---1111-11-|
A|-9-9--9---6-6--6---7-7--7---9-9--9--9-9--9---6-6--6---7-7--7---9-9--9--|
E|-7-7--7---4-4--4--------------------7-7--7---4-4--4--------------------|

e|-------------------7-7--7---9-9--9--------------------7-7--7---9-9--9--|
B|-------------------9-9--9---1111-11-------------------9-9--9---1111-11-|
G|-------------------9-9--9---1111-11-------------------9-9--9---1111-11-|
D|-9-9--9---6-6--6---9-9--9---1111-11-9-9--9---6-6--6---9-9--9---1111-11-|
A|-9-9--9---6-6--6---7-7--7---9-9--9--9-9--9---6-6--6---7-7--7---9-9--9--|
E|-7-7--7---4-4--4--------------------7-7--7---4-4--4--------------------|
Suggest correction
Give kudos to tab author, rate the tab!
1 2 3 4 5
comments
print report bad tab
guest
You may want to rate the tab now too:
select rating
Wanna post a correction for this tab? Suggest correction