Oops, an error
Loading. Please wait.

Punk Rock Girl solo tab

version 2
version 2

Solo

9,764 views 6 this week
7 commentsread comments
1 2 3 4 5
x 10
add to favorites
×
Save as Personal and add changes to this tab that will be seen only by you. Learn more ›
×
You can save this tab as Personal to edit and correct it or add notes. All changes will be seen only by you. Learn more »
launch autoscroll
font size
0
reset
how to read this tab
guitar tuner
edit
Autoscroll
slow
fast
+/-
esc
set tempo
stop
Difficulty
intermediate
Hey,
this is the solo of punkrock girl, about 99,9% perfect.

Standard tuning for this(EADGBe)


e-----------------------------------------------------------------------|
B-----------6--------------------------------6--------------------------|
G-5-3-5-32----2-3-2--3-2-0-2-3-2--5-3-2-5-2-----3-2--3-2-0---0-2-0------|
D----------------------------------------------------------3-------3--0-|
A-----------------------------------------------------------------------|
E-----------------------------------------------------------------------|


e-------------------------------------------------------------------------|
B------------------*10-8-6*-----------------------------------------------|
G---^22222-0-----------------2-3-5-5---5-2-3-2-0--------------------------|
D-3----------3-0-3-----------3-3-5---5---3-------3-2----------------------|
A-------------------------------------------------------------------------|
E-------------------------------------------------------------------------|


|^| = Pull the snare up
*   = This part could be played alot easier on the high e snare, but i couldn't figure 
out since my e snare broke a while ago.
I think it's something like: 5-3-1

Still found a mistake?
mail to: mystic_tempest@hotmail.com
Suggest correction
Creating personal tab
Creating personal tab
You can edit any tab online and save it as your Personal.

You can edit, replace or remove any tab part or add personal notes – all changes will be seen only by you.

Personal tabs can be accessed anytime from any device, even offline.
Learn more »
comments
print report bad tab
7 comments total. Showing first comments.
0 reply
Bantar 384 Mar 10, 2009 05:11 PM

On the part where it says: G-5-3-5-32,
is it supposed to be:
G-5-3-5-3-2
?????????

0 reply
Kujaku 20 Apr 05, 2009 08:33 PM

Lol, I fricken hope so, Bantar. I've never played a 32 fret guitar.

0 reply
nashawa 161 Mar 09, 2010 02:27 PM

^Wow, what a useless post.

guest
Wanna post a correction for this tab? Suggest correction