Oops, an error
Loading. Please wait.

Smokin Banana Peels bass

562 views 3 this week
no commentswrite comment
1 2 3 4 5
2 more votes to show rating
add to favorites
×
Save as Personal and add changes to this tab that will be seen only by you. Learn more ›
×
You can save this tab as Personal to edit and correct it or add notes. All changes will be seen only by you. Learn more »
launch autoscroll
font size
0
reset
guitar tuner
edit
Autoscroll
slow
fast
+/-
esc
set tempo
stop
-----------------------------------------------------------------------------
		     Dead Milkmen - Smokin' Banana Peels
-----------------------------------------------------------------------------

Tabbed by: Ben Gladdle (moose9377@hotmail.com)

Main Verse Riff:
---------------

G-------------------------|
D--4-2------2-4--2--5-5---|
A-------2-5---------------|
E-------------------------|

Those last two notes I'm not entirely sure of. It kinda gets
swallowed by the guitar and drums etc. I couldn't decide
whether it should be like this or just like the "other riff"
below. Or even a low G for the last 2 notes. Whatever you like.


Other Riff:
----------

A:
G----------------------------|
D--4--2------2-4--2----------|
A--------2-5---------5-2-----|
E----------------------------|

B:
G--4--2------2-4--2----------|
D--------2-5---------5-2-----|
A----------------------------|
E----------------------------|

I've never been 100% sure of this bit. I can't decide whether
to play AABB, or ABAB. You decide.


Post Verse:
----------

G----------------------------------------|
D---5-5-5-5-----------1-1-1-1--3-3-3-3---|
A------------3-3-3-3---------------------|
E----------------------------------------|

G----------------------------------------|
D---5-5-3-3--1-1-------------------1-1---|
A----------------5-5--1-1-3-3--5-5-------|
E----------------------------------------|

G-------------------------------------------|
D---------------------1-1------3-3------5---|
A------------1-1----------------------------|
E---1---------------------------------------|

G-------------------------------------------|
D---5-5--.....-etc--.......-----------------|
A-------------------------------------------|
E-------------------------------------------|


"Mellow" Bit:
------------

G----------------------------------------|
D------------1---1-1-----------1---1-1---|
A---1---1-1-----------1---1-1------------| (x2)
E----------------------------------------|

G----------------------------------------|
D---------------------1-1-...------------|
A------------1-1-...---------------------| (x2)
E---3-3-...--------------------1-1-...---|

This bit is infuriating as I can't really hear the bass at
all. I'd say to just follow the guitar.


From the Dead Milkmen Guitar Tab Project
http://www.geocities.com/dmtabs/

=============================================================================

            
            
Suggest correction
Creating personal tab
Creating personal tab
You can edit any tab online and save it as your Personal.

You can edit, replace or remove any tab part or add personal notes – all changes will be seen only by you.

Personal tabs can be accessed anytime from any device, even offline.
Learn more »
Give kudos to tab author, rate the tab!
1 2 3 4 5
comments
print report bad tab
guest
You may want to rate the tab now too:
select rating
Wanna post a correction for this tab? Suggest correction