Oops, an error
Loading. Please wait.

Stuart bass

version 1
version 1

Whole song

Interactive

740 views 1 this week
no commentswrite comment
1 2 3 4 5
2 more votes to show rating
add to favorites
×
Save as Personal and add changes to this tab that will be seen only by you. Learn more ›
×
You can save this tab as Personal to edit and correct it or add notes. All changes will be seen only by you. Learn more »
launch autoscroll
font size
0
reset
guitar tuner
edit
Autoscroll
slow
fast
+/-
esc
set tempo
stop
Author
Difficulty
-----------------------------------------------------------------------------
			     Dead Milkmen - Stuart
-----------------------------------------------------------------------------

Tabbed By : Extra Blood
e-mail: Lenda@ofir.dk

Tuning: E A D G

A pretty simple song all the way through.

Verse:
-----
  (You know what Stuart, I like you...)
G|---------------------------------------|
D|--3---------3-3------------------------|
A|--------------------------------1----3-|
E|----------------------3----------------|

Pre-Chorus:
----------
  (But they're content to sit back...)
G|----------------------|
D|------------3---------|  (x3)
A|--5----1--------------|
E|-----------------5----|

  (But they don't know, what the queers...)
G|-------------------------------------------------------------|
D|------------3-3-3-3-3-3-3-3-3-3-3-2--------------------------|
A|--5----1----------------------------3-3-3-3-3-3-3-3-3-3-3-3--|
E|-------------------------------------------------------------|

-Verse
-Pre-Chorus

Chorus:
------
   ("...my burrow owl"... I said "Jumpin' Jesus on a pogo stick!...")
G|--------------------------------------------------|
D|------------------------5-6-6-6-6-6-5-----------5-|
A|--------------6-6-6-6-6---------------6-6-6-6-6---|
E|--4-4-4-6-6-6-------------------------------------|

   ("lives in a hole in the ground...")
G|-------------------------------------------------------------|
D|-6-6-6-6-6-5-----------5-6-6-6-6-6-5-----------5-8-8-8--etc.-|
A|-------------6-6-6-6-6---------------6-6-6-6-6---------------|
E|-------------------------------------------------------------|

-Verse
-Pre-Chorus
-Chorus
-Verse

Outro:
-----
   (The government says it's due to poor farming...)
G|------------------------|
D|-------------3-3--------| (x3)
A|---5-5--1-1-------------|
E|-----------------5-5-5--|

    (for gay Martians. I swear to God...)
G----------------------------------------------|
D------------3---2---------------2---3---5---3-|
A-5-5--1-1-----------5---3---5-----------------|
E----------------------------------------------|

            
            
Suggest correction
Creating personal tab
Creating personal tab
You can edit any tab online and save it as your Personal.

You can edit, replace or remove any tab part or add personal notes – all changes will be seen only by you.

Personal tabs can be accessed anytime from any device, even offline.
Learn more »
Give kudos to tab author, rate the tab!
1 2 3 4 5
comments
print report bad tab
guest
You may want to rate the tab now too:
select rating
Wanna post a correction for this tab? Suggest correction