Oops, an error
Loading. Please wait.

In Hell Ill Be In Good Company chords

version 2
version 2

Whole song

19,831 views 2,016 this week
7 commentsread comments
1 2 3 4 5
x 28
add to favorites
×
Save as Personal and add changes to this tab that will be seen only by you. Learn more ›
×
You can save this tab as Personal to edit and correct it or add notes. All changes will be seen only by you. Learn more »
launch autoscroll
font size
0
reset
transpose
0
reset
simplify chords
display chords
guitar tuner
edit
Autoscroll
slow
fast
+/-
esc
set tempo
stop
Author
Difficulty
About this tab version
Complete chords and little tabs. Was this info helpful? Yes No
Strumming
There is no strumming pattern for this song yet. and get +5 IQ
[Intro]

Gm F Gm Cm Gm D7 Gm
(Whistle)

Gm F D7 Gm

[Verse]
Gm
Dead Love couldn't go no further,
Gm
Proud of and disgusted by her,
Gm
Push shove, a little bruised and battered,
  F             D7               Gm
Oh Lord I ain't comin' home with you

Gm
My lifes a bit more colder,
Gm
Dead wife is what I told her,
Gm
Brass knife sinks into my shoulder,
  F                D7             Gm
Oh babe don't know what I'm gonna do

e|---------------------|
B|---------------------|
G|---------------------|
D|--0-1-2-3-4-0-2-4-5--|
A|---------------------|
E|---------------------|

[Chorus]
Gm
I see my red head, messed bed, tear shed, queen bee, my squeeze.
                                                                   F
The stage it smells, tells, hells bells, mistells, knocks me on my knees
              Gm                                                   Cm
It didn't hurt, flirt, blood squirt, stuffed shirt, hang me from a tree
        Gm                           D7                       Gm
After I count down, three rounds, in Hell ill be in good company

Gm F D7 Gm

[Verse]
Gm
Dead Love couldn't go no further,
Gm
Proud of and disgusted by her,
Gm
Push shove, a little bruised and battered,
  F             D7               Gm
Oh Lord I ain't comin' home with you

Gm
My lifes a bit more colder,
Gm
Dead wife is what I told her,
Gm
Brass knife sinks into my shoulder,
  F                D7             Gm
Oh babe don't know what I'm gonna do

e|---------------------|
B|---------------------|
G|---------------------|
D|--0-1-2-3-4-0-2-4-5--|
A|---------------------|
E|---------------------|

[Chorus]
Gm
I see my red head, messed bed, tear shed, queen bee, my squeeze.
                                                                   F
The stage it smells, tells, hells bells, mistells, knocks me on my knees
              Gm                                                   Cm
It didn't hurt, flirt, blood squirt, stuffed shirt, hang me from a tree
        Gm                           D7                       Gm
After I count down, three rounds, in Hell ill be in good company
    F              D7        Gm
 in Hell ill be in good company
    F              D7        Gm
 in Hell ill be in good company

[Outro]

Gm F Gm Cm Gm D7 Gm
(Whistle)

            
            
Suggest correction
Creating personal tab
Creating personal tab
You can edit any tab online and save it as your Personal.

You can edit, replace or remove any tab part or add personal notes – all changes will be seen only by you.

Personal tabs can be accessed anytime from any device, even offline.
Learn more »
comments
print report bad tab
7 comments total. Showing first comments.
+3 reply
i.furst 21 Mar 08, 2017 12:39 PM

Matches up perfectly with the youtube recording. Fantastic work!

0 reply
danco49 10 Apr 13, 2017 10:37 PM

👍

+2 reply
adambeymer 10 Jun 08, 2017 12:09 AM

This is what I got for the banjo part(transposed for guitar)

|--------3-------------3-------------3--------(3)--(3)--|
|----------3-------------3-------------3----------------|
|-------------------------------------------3-----2-----| x2(intro)
|--3h5-----------3h5-----------3h5----------------------| x4(verse)
|-------------------------------------------------------|
|-------------------------------------------------------|

|---------1--------1--------------2-------2------|
|------1--------1--------1-----1-------1-------1-|
|---2--------2--------2--------------------------|
|---------------------------0-------0-------0----|
|------------------------------------------------|
|------------------------------------------------|

guest
You may want to rate the tab now too:
select rating
Wanna post a correction for this tab? Suggest correction