Oops, an error
Loading. Please wait.

Blue Blood Blues tab

version 1
version 1

Whole song

Interactive

32,615 views 27 this week
2 commentsread comments
1 2 3 4 5
x 9
add to favorites
×
Save as Personal and add changes to this tab that will be seen only by you. Learn more ›
×
You can save this tab as Personal to edit and correct it or add notes. All changes will be seen only by you. Learn more »
launch autoscroll
font size
0
reset
how to read this tab
guitar tuner
edit
Autoscroll
slow
fast
+/-
esc
set tempo
stop
Author
The Dead Weather - Blue Blood Blues (from the album Sea Of Cowards)

This is how I play this song

Tuning: Standard

[Main Riff]
E|----------------------|
B|----------------------|
G|----------------------|
D|----------------------|
A|----------------------|
E|-0-0--2-2-2-2b(1/2)-2-|x3

[Riff 1]
E|----------------------------|
B|----------------------------|
G|----------------------------|
D|----------------------------|
A|----------5h7h9-7p5h7p5-----|
E|-0-0--5h7---------------7p5-|

[Main Riff] x3
[Riff 1] x1

[Riff 2]
E|-----------------------------|
B|-----------------------------|
G|-----------------------------|
D|-----------------------------|
A|-----7-----------------------|
E|-0-0----6-6b(1/4)-6b(1/2)-6b-|x3

[Riff 1] x1
[Riff 2] x3
[Riff 1] x1

[Riff 3]
E|-----------------------------|
B|-----------------------------|
G|-----------------------------|
D|---------------------2-------|
A|-----7--------2--1-2---------|
E|-0-0----0-2-3----------------|x3

[Riff 1] x1
[Main Riff] x3
[Riff 1] x5
[Riff 2] x3
[Riff 1] x1
[Main Riff] x3
[Riff 1] x1
[Main Riff] x3
[Riff 1] x4
[Riff 2] x3
[Riff 1] x1
[Riff 2 & Riff 3] x3
[Riff 1] x1
[Main Riff] x3
[Riff 1] x1
[Main Riff] x3
[Riff 1] x5
[Riff 1 & Riff 3] x1
[Riff 2] x3
[Riff 2 & Riff 3] x1
[Riff 2] x6

This song is based on that 4 riffs. Maybe I put them in wrong order, I don't know.

P.S.: I found out that Main Riff and Riff 1 are played by bass guitar.

************************************

| /  Slide up
| h  Hammer-on
| p  Pull-off
| b  Bend

************************************

            
            
Suggest correction
Creating personal tab
Creating personal tab
You can edit any tab online and save it as your Personal.

You can edit, replace or remove any tab part or add personal notes – all changes will be seen only by you.

Personal tabs can be accessed anytime from any device, even offline.
Learn more »
comments
print report bad tab
2 comments total.
0 reply
clatt123 10 Jan 22, 2014 07:15 PM

I think the one riff played after the main riff is:
e|-------------------
B|----------00-0-0---
G|------0---33-3-3~--
D|-------------------
A|-------------------
E|--00---------------

or add open B string

e|-------------------
B|------0---00-0-0--
G|------0---33-3-3~--
D|-------------------
A|-------------------
E|--00---------------

while bending the 3's

0 reply
wetyopdude 10 Aug 02, 2014 01:33 AM

The way I do that riff ^^^ is

e|------------------------------------
B|---------2b(1)2b(1)2b(1)2b(1)-------
G|------------------------------------
D|------------------------------------
A|------------------------------------
E|--0-0-------------------------------

guest
You may want to rate the tab now too:
select rating
Wanna post a correction for this tab? Suggest correction