Oops, an error
Loading. Please wait.

Hustle And Cuss tab

version 1
version 1

Whole song

13,025 views 6 this week
3 commentsread comments
1 2 3 4 5
x 6
add to favorites
×
Save as Personal and add changes to this tab that will be seen only by you. Learn more ›
×
You can save this tab as Personal to edit and correct it or add notes. All changes will be seen only by you. Learn more »
launch autoscroll
font size
0
reset
how to read this tab
guitar tuner
edit
Autoscroll
slow
fast
+/-
esc
set tempo
stop
Difficulty
The Dead Weather
Hustle and Cuss
Sea of Cowards

Standard Tuning

4 Measures of Bass/Drums

Intro/Chorus *Slightly Palm Muted*
|----------------|   |------------|
|----------------|   |------------|
|----------------|   |------------|
|----------------|   |------------|
|-77-5-7-7b-752--|x7 |-77-5-7-7b--|
|--------------0-|   |------------|

Intro End
|--------|
|--------|
|--------|
|-5-7-2~-|
|-5-7-2~-|
|-3-5-0~-|

Verse *Slightly Palm Muted*
|----------------|   |----------------|   |-----------|
|----------------|   |----------------|   |-----------|
|----------------|   |-99-7-9-9b-974--|   |-99-7-9-9b-|
|----------------|   |--------------2-|   |-----------|
|-77-5-7-7b-752--|x4 |----------------|x3 |-----------|
|--------------0-|   |----------------|   |-----------|

|---------|
|---------|
|---------|
|-5-7--2~-|
|-5-7--2~-|
|-3-5--0~-|

Chorus x1

Post Chorus/Verse 2
|----------------|
|----------------|
|-99-7-9-9b-974--|
|--------------2-|
|----------------|x7
|----------------|

|------|
|------|
|------|
|-5-7~-|
|-5-7~-|
|-3-5~-|

Chorus 2
|----------------|   |-----------|
|----------------|   |-----------|
|-99-7-9-9b-974--|   |-99-7-9-9b-|
|--------------2-|   |-----------|
|----------------|x7 |-----------|
|----------------|   |-----------|

|------|
|------|
|------|
|-5-7~-|
|-5-7~-|
|-3-5~-|

Organ Solo (8 Measures of Bass/Organ/Drums)

|----------------|
|----------------|
|----------------|
|----------------|
|-77-5-7-7b-752--|
|--------------0-|
                   x2
|----------------|
|----------------|
|----------------|
|----------------|
|-77-5-7-7b-7520-|
|----------------|

Post-Solo
|---------------------|
|---------------------|
|---------------------|
|---------------------|
|-7~-7~-7~-777-7~-777-|
|---------------------|

8 Measures of drums

Outro
|----------------|
|----------------|
|-99-7-9-9b-974--|
|--------------2-|
|----------------|x8
|----------------|



            
            
Suggest correction
Creating personal tab
Creating personal tab
You can edit any tab online and save it as your Personal.

You can edit, replace or remove any tab part or add personal notes – all changes will be seen only by you.

Personal tabs can be accessed anytime from any device, even offline.
Learn more »
comments
print report bad tab
3 comments total.
0 reply
tukall 10 May 15, 2010 02:43 AM

In the intro, it'd be easier to just go from 7 on the A string down to 7 on the E rather than sliding all the way down to 2 on the A.
That aside, pretty good tab as far as I can tell.

0 reply
tukall 10 May 15, 2010 02:50 AM

sorry about double posting but you could also do something easier here:
|----------------|
|----------------|
|-99-7-9-9b-974--|
|--------------2-|
|----------------|
|----------------|

I think it'd be simpler like this:
|----------------|
|----------------|
|-99-7-9-9b-97---|
|-------------9--|
|--------------7-|
|----------------|

0 reply
the waste 31 Nov 19, 2011 04:28 PM

Tukall is right w/ both comments. Makes way more sense to play it that way.

guest
Wanna post a correction for this tab? Suggest correction