Oops, an error
Loading. Please wait.

Rocking Horse Bass Tab

version 1
version 1

Whole song

7,398 views 6 this week
1 commentread comment
1 2 3 4 5
x 4
add to favorites
launch autoscroll
font size
0
reset
guitar tuner
Autoscroll
slow
fast
+/-
esc
set tempo
stop
Help us to improve Ultimate-Guitar.com Take our survey!
×
Difficulty
novice
     Q.     E  Q    Q     
E||----------------------|
B||----------------------|
G||----------------------|
D||------------2---------|
A||---------2-------2----|
E||--0-------------------|


  Q.     E  E  E  E  E    
------------------------||
------------------------||
------------------------||
------------0-----------||
---------2-----2--------||
--3---------------3--2--||

There's the main riff at the least. For the sound I use the pick and play near the bridge.
Suggest correction
comments
print report bad tab
1 comment total.
0 reply
coreyvictoria 62 Dec 23, 2009 02:24 PM

Thanks this is a cool line

guest
You may want to rate the tab now too:
select rating
Wanna post a correction for this tab? Suggest correction