Oops, an error
Loading. Please wait.

Rough Detective Bass Tab

13 views 1 this week
no commentswrite comment
1 2 3 4 5
3 more votes to show rating
add to favorites
launch autoscroll
font size
0
reset
guitar tuner
Autoscroll
slow
fast
+/-
esc
set tempo
stop
Help us to improve Ultimate-Guitar.com Take our survey!
×
Author
Tuning
D A D G B E
[Intro]


G|---------------------------------|
D|---------------------------------|
A|-7p5-------------7p5-------------|
D|-----9p7-5h7-0h2-----9p7-5h7-0h2-|

[Verse]

G|---------------------------------|-----------------------------------|
D|---------------------------------|-----------------------------------|
A|-7p5-------------7p5-------------|-7p5-------------7p5---------------|
D|-----9p7-5h7-0h2-----9p7-5h7-0h2-|-----9p7-5h7-0h2-----9p7-5h7-0h2---|

G|---------------------------------------------------------------------------|
D|---------5-----------------------------------------------------------------|
A|-7-7-5-7---------------------------------------------------7-7-5-7-7-------|
D|---------------------------------------------------------------------------|

[Chorus]

G|---------------------------------|-----------------------------------|
D|---------------------------------|-----------------------------------|
A|-7p5-------------7p5-------------|-7p5-------------7p5---------------|
D|-----9p7-5h7-0h2-----9p7-5h7-0h2-|-----9p7-5h7-0h2-----9p7-5h7-0h2---|

[Verse]

G|---------------------------------|-----------------------------------|
D|---------------------------------|-----------------------------------|
A|-7p5-------------7p5-------------|-7p5-------------7p5---------------|
D|-----9p7-5h7-0h2-----9p7-5h7-0h2-|-----9p7-5h7-0h2-----9p7-5h7-0h2---|

G|---------------------------------|
D|---------------------------------|
A|-7p5-------------7p5-------------|
D|-----9p7-5h7-0h2-----9p7-5h7-0h2-|

G|---------------------------------------------------------------------------|
D|---------5-----------------------------------------------------------------|
A|-7-7-5-7---------------------------------------------------7-7-5-7-7-------|
D|---------------------------------------------------------------------------|

[Chorus]

G|---------------------------------|-----------------------------------|
D|---------------------------------|-----------------------------------|
A|-7p5-------------7p5-------------|-7p5-------------7p5---------------|
D|-----9p7-5h7-0h2-----9p7-5h7-0h2-|-----9p7-5h7-0h2-----9p7-5h7-0h2---|

[Bridge]

G|---------------------------------|
D|---------------------------------|
A|-7p5-------------7p5-------------|
D|-----9p7-5h7-0h2-----9p7-5h7-2-2-|

G|---------------------------------------------------------------------------|
D|---------------------------------------------------------------------------|
A|---------------------------------------------------------------------------|
D|-0h2-------------2-2--------------2-2---------2-2--2-2--2-2----------------|

G|---------------------------------|-----------------------------------|
D|---------------------------------|-----------------------------------|
A|-7p5-------------7p5-------------|-7p5-------------7p5---------------|
D|-----9p7-5h7-0h2-----9p7-5h7-0h2-|-----9p7-5h7-0h2-----9p7-5h7-0h2---|

[Outro]

G|------------------------------------|
D|------------------------------------|
A|------------------------------------|
D|-0h2-0h2-0h2-0h2-0h2-0h2-0h2-0h2----|

G|---------------------------------|
D|---------------------------------|
A|-7p5-------------7p5-------------|
D|-----9p7-5h7-0h2-----9p7-5h7-0h2-|

G|---------------------------------------------------------------------------|
D|---------5-----------------------------------------------------------------|
A|-7-7-5-7---------------------------------------------------7-7-5-7---------|
D|-------------------------------------------------------------------2-------|


************************************

| h   Hammer-on
| p   Pull-off
Suggest correction
Give kudos to tab author, rate the tab!
1 2 3 4 5
comments
print report bad tab
guest
You may want to rate the tab now too:
select rating
Wanna post a correction for this tab? Suggest correction