Oops, an error
Loading. Please wait.

Eucalyptus Tab

version 1
version 1

Solo

773 views 6 this week
no commentswrite comment
1 2 3 4 5
3 more votes to show rating
add to favorites
launch autoscroll
font size
0
reset
how to read this tab
guitar tuner
Autoscroll
slow
fast
+/-
esc
set tempo
stop
Help us to improve Ultimate-Guitar.com Take our survey!
×
e------------------------------------------------------------|
B------------------------------------------------------------|
G------8-11--------------------------------------------------|
D----9------9---8h9p8----8-----6-9---9---9 ------------------|               x6
A----------------------9-----7-----7---7---7-----------------|
E------------------------------------------------------------|

im a little unsure on the chords proceeding but here is the solo:

e----------------------------------------|-----------------------------|
B---4--4h5--5h7--7--4--4h5--5--7--5--4---|---------Part A--------------|
G-------------------------------------4--|-----------------------------|
D----------------------------------------|-----------------------------|
A----------------------------------------|----6------------------------|
E----------------------------------------|--4--4---4--6--7--6----------|

e---------------------|----------------7--7p6--6--6p4--4--4p2------|
B---------------------|----4--4h5--5h7-----------------------------|
G---------------------|--------------------------------------------|then play part
D---------------------|--------------------------------------------| A again
A-----6---------------|--------------------------------------------|
E--4--4---4--6--7--6--|--------------------------------------------|
Suggest correction
Give kudos to tab author, rate the tab!
1 2 3 4 5
comments
print report bad tab
guest
You may want to rate the tab now too:
select rating
Wanna post a correction for this tab? Suggest correction