Oops, an error
Loading. Please wait.

Wolves In The Garden Tab

4,870 views 1 this week
no commentswrite comment
1 2 3 4 5
please rate
add to favorites
launch autoscroll
font size
0
reset
how to read this tab
guitar tuner
Autoscroll
slow
fast
+/-
esc
set tempo
stop
Help us to improve Ultimate-Guitar.com Take our survey!
×
Author
E|--------------------------0-0------3-3---|
B|-0--------(0)-------------1-1------0-0---|
G|----4---4-----0---0-------0-0------0-0---|  x8
D|-2----2----------------2--2-2------0-0---|
A|-----------2----2----3----3-3----2-2-2---|
e|--------------------------------3--3-3---|

|------0---0-0-0-------3-------------|
|----1-1---1-1-1-----0-0---0-0-0-----|
|--0-0-0---0-0-0---0-0-0---0-0-0-----|  x4
|--2-2-2---2-2-2---0-0-0---0-0-0-----|
|--3-3-------3-----2-2-2---2-2-2-----|
|------------------3-3-3-----3-------|

|-------3---3-3-3----|------3---3---3---3----|
|-------3---3-3-3----|-----------------------|
|--0--0-0---0-0-0----| x 2-------------------|
|--2--2-2---2-2-2----|--------2---2---2------|
|--3--3-3-----3------|-----------------------|
|--------------------|-----------------------|

|--------------------------0-0------3-3---|
|-0--------(0)-------------1-1------0-0---|
|----4---4-----0---0-------0-0------0-0---|  x4
|-2----2----------------2--2-2------0-0---|
|-----------2----2----3----3-3----2-2-2---|
|--------------------------------3--3-3---|

|------0---0-0-0-------3---------------2--2-2-2------0--------|
|----1-1---1-1-1-----0-0---0-0-0---3-3-3--3-3-3------1--1-1-1-|
|--0-0-0---0-0-0---0-0-0---0-0-0---2-2-2--2-2-2--2-2-2--2-2-2-|
|--2-2-2---2-2-2---0-0-0---0-0-0---0-0-0----0----2-2-2--2-2-2-|
|--3-3-------3-----2-2-2---2-2-2-----------------0-0-0----0---|
|------------------3-3-3-----3--------------------------------|

|------0---0-0-0-------3---------------2--2-2-2----|
|----1-1---1-1-1-----0-0---0-0-0---3-3-3--3-3-3----|
|--0-0-0---0-0-0---0-0-0---0-0-0---2-2-2--2-2-2----|
|--2-2-2---2-2-2---0-0-0---0-0-0---0-0-0----0------|
|--3-3-------3-----2-2-2---2-2-2-------------------|
|------------------3-3-3-----3---------------------|

|-------3---3-3-3----|------3---3---3---3----|
|-------3---3-3-3----|-----------------------|
|--0--0-0---0-0-0----|-----------------------|
|--2--2-2---2-2-2----|--------2---2---2------|
|--3--3-3-----3------|-----------------------|
|--------------------|-----------------------|

Well that's basically all there is to it really.
Here's the lyrics

You say you're going to
The garden, and I should come and play
I feel like I should tell you there,
There were wolves there yesterday

We walked and I said nothing
I didn't want to hurt the mood
I know we can't outrun them
But the flowers smell so good

Those wolves in the garden
Wolves in the garden
Wolves in the garden

It's a sunny morning
They gave no warning
Those wolves, those wolves
In the garden

I know I could have saved us
But we'd have never known this day
If this is where we had to go
Well then I'm glad we went this way

All that's left to see is
What kind of flowers we'll become
I'm sure we'll be the kind
That bring children out into the sun

Those wolves in the garden
Wolves in the garden
Wolves in the garden
Wolves in the garden

It's a rainstorm forming
It gave no warning
Those wolves, those wolves
In the garden

Wolves in the garden
Wolves in the garden
In the garden
Wolves in the garden
Wolves in the garden

Animals Wearing Clothes

This was poorly planned
And executed twice as bad
And now we're swapping stories 'cross the table

Yeah, it's rather sad
That mom would cry 'cause dad got mad
So she locked herself in a burnt out house
While wedding bells were ringing out

This was poorly wrote
It's a shipwreck note for note
Despite it's many flaws it has you smitten

You're blinded by a verse or two
Convinced that they're all about you
But I'm drunk and just sittin'
swingin' on your front porch singing

Keep it to yourself
Make your life a living hell
Die a little every day
Most people die that way

And when it all went wrong
You became a ghost
It's not as hard as you'd supposed
We're animals wearing clothes

Well now you know my tricks
I oversimplify a bit
And I break things down until they're small and friendly

Well that includes your heart
And like a rundown shopping cart
Goes creaking down the aisle
Throwing sparks and faking smiles

Keep it to yourself
Make your life a living hell
Die a little every day
Most people die that way

And when it all went wrong
You became a ghost
It's not as hard as you'd supposed
We're animals wearing clothes
Suggest correction
Give kudos to tab author, rate the tab!
1 2 3 4 5
comments
print report bad tab
guest
You may want to rate the tab now too:
select rating
Wanna post a correction for this tab? Suggest correction