Oops, an error
Loading. Please wait.

A Night On The Town tab

109 views 6 this week
no commentswrite comment
1 2 3 4 5
1 last vote to show rating
add to favorites
×
Save as Personal and add changes to this tab that will be seen only by you. Learn more ›
×
You can save this tab as Personal to edit and correct it or add notes. All changes will be seen only by you. Learn more »
launch autoscroll
font size
0
reset
how to read this tab
guitar tuner
edit
Autoscroll
slow
fast
+/-
esc
set tempo
stop
One of my all time favourite songs! Had a go at working out how to play along on guitar, but as you 
probably know, some parts feature very little guitar and are very bass / piano heavy. Therefore, choose
a strumming pattern that sounds good to you. I have tried to mark the timings of the chord changes within
the tab where possible. I've also tabbed out any prominent riffs / motifs, which can be played instead of
the chords. I've included lyrics and timings in the song where appropriate.

Notes in () are optional, and notes in [] are to let ring. I've also included the names of the chords 
if you'd prefer to play them in a different position.

[Intro]
e|----------------------------|
B|----------------------------|
G|----------------------------|
D|------5----7--------5-------|
A|-7------------7-5-7----7-5--|
E|----------------------------|  (x3)

e|----------------------------|
B|----------------------------|
G|----------------------------|
D|-9----7-----------------5---|
A|-----------5--7----5--------|
E|----------------------------| 

e|----------------------------|
B|----------------------------|
G|----------------------------|
D|------5----7--------5-------|
A|-7------------7-5-7----7-5--|
E|----------------------------|  (x3)

e|----------------------------|
B|----------------------------|
G|----------------------------|
D|-9----7-----------------5---|
A|-----------5--7----5--------|
E|----------------------------| 

[Verse]
    Em              Edim               Em                Am
e|-------------------------------------------------------------------------|
B|--8-----------------8-----------------8-----------------5----------------|
G|--9-----------------9-----------------9-----------------5----------------|
D|--9-----------------8-----------------9-----------------7----------------|
A|--7-----------------7-----------------7-----------------7----------------|
E|-(0)---------------------------------(0)----------------5----------------|

"I've been misplaced..."

    Em                C                B        Em         Am      D    C
e|-----------------------------------------------------------------5----3----|
B|--8-----------------8----------------7---------8---------5-------7----5----|
G|--9-----------------9----------------8---------9---------5-------7----5----|
D|--9-----------------10---------------9---------9---------7-------7----5----|
A|--7-----------------10---------------9---------7---------7-------5----3----|
E|-(0)----------------8----------------7--------(0)--------5-----------------|

"Teeth still gleam..."

   B                 Em                B                C
e|----------------------------------------------------------------|
B|-7-----------------8-----------------7----------------8---------|
G|-8-----------------9-----------------8----------------9---------|
D|-9-----------------9-----------------9----------------10--------|
A|-9-----------------7-----------------9----------------10--------|
E|-7----------------(0)----------------7----------------8---------|

"Were we erased..."
e|---------------------------|
B|-5----3----0---------------|
G|--------------4----2----0--|
D|---------------------------|
A|---------------------------|
E|---------------------------|

[Chorus]
   G                        D    Em   C                        Em   D/F#
e|-3------------------------2----0----0------------------------0----2----|
B|-3------------------------3----0----1------------------------0----3----|
G|-0------------------------2----0----0------------------------0----2----|
D|-0------------------------0----2----2------------------------2----0----|
A|-------------------------------2----3------------------------2---------|
E|-3-----------------------------0-----------------------------0----2----|

"What will I see..."

   G                        D    Em   C                        G    D/F#
e|-3------------------------2----0----0------------------------3----2----|
B|-3------------------------3----0----1------------------------3----3----|
G|-0------------------------2----0----0------------------------0----2----|
D|-0------------------------0----2----2------------------------0----0----|
A|-------------------------------2----3----------------------------------|
E|-3-----------------------------0-----------------------------3----2----|

"What will I see..."

[Pre-verse Riff]
e|------3----5--------3-------|
B|-5------------5-3-5----5-3--|
G|----------------------------|
D|----------------------------|
A|----------------------------|
E|----------------------------| (x3)

e|-7----5------------------------|
B|-----------8--7----5-----------|
G|------------------------7------|
D|---------------------------(9)-|
A|-------------------------------|
E|-------------------------------|

[Verse]
   B                 Em                B                 Em       D
e|----------------------------------------------------------------5--------|
B|-7-----------------8-----------------7-----------------8--------7--------|
G|-8-----------------9-----------------8-----------------9--------7--------|
D|-9-----------------9-----------------9-----------------7--------7--------|
A|-9-----------------7-----------------9-----------------7--------5--------|
E|-7----------------(0)----------------7----------------(0)----------------|

"Must we remind..."

   B                Am       G    Em   B                C
e|--------------------------------0------------------------------|
B|-7----------------5--------3----0----7----------------8--------|
G|-8----------------5--------4----0----8----------------9--------|
D|-9----------------7--------5----2----9----------------10-------|
A|-9----------------7--------5----2----9----------------10-------|
E|-7----------------5--------3----0----7----------------8--------|

"We lost what..."
e|-0-------------------------|
B|------0----3---------------|
G|--------------0------------|
D|-------------------2----0--|
A|---------------------------|
E|---------------------------|

[Chorus]
   G                        D    Em   C                        Em   D/F#
e|-3------------------------2----0----0------------------------0----2----|
B|-3------------------------3----0----1------------------------0----3----|
G|-0------------------------2----0----0------------------------0----2----|
D|-0------------------------0----2----2------------------------2----0----|
A|-------------------------------2----3------------------------2---------|
E|-3-----------------------------0-----------------------------0----2----|

"What will I see..."

   G                        D    Em   C                        Em   D
e|-3------------------------2----0----0------------------------0----2----|
B|-3------------------------3----0----1------------------------0----3----|
G|-0------------------------2----0----0------------------------0----2----|
D|-0------------------------0----2----2------------------------2----0----|
A|-------------------------------2----3------------------------2---------|
E|-3-----------------------------0-----------------------------0---------|

"What will I see..."

[Bridge]
   Am               B7               C                B7
e|-0---------------------------------0---------------------------------|
B|-1----------------0----------------1----------------0----------------|
G|-2----------------2----------------0----------------2----------------|
D|-2----------------1----------------2----------------1----------------|
A|-0----------------2----------------3----------------2----------------|
E|---------------------------------------------------------------------|

"...think I am" (2:37)

   Am               G                C  C#m#5  D        C  C#m#5  D
e|-0-----------------------------------------------------------------------|
B|-1----------------3------------------------------------------------------|
G|-2----------------4----------------0----2----2--------0----2----2--------|
D|-2----------------5----------------2----2----4--------2----2----4--------|
A|-0----------------5----------------3----4----5--------3----4----5--------|
E|------------------3------------------------------------------------------|

"...told you so"

   C  C#m#5  D  D#dim  Am               B                B7 (arpeggio)
e|----------------------------------------------------------2------------|
B|---------------------5----------------7------------------0-------------|
G|-0----2----2----2----5----------------8-----------------2--------------|
D|-2----2----4----4----7----------------9----------------1---------------|
A|-3----4----5----6----7----------------9---------------2----------------|
E|---------------------5----------------7--------------------------------|

"...cursed and brought"

[Instrumental]
(Note: Time signature change to 6/8 and 3/8 - the fisrt four bars are 6/8, the fifth is 3/8, and then the 
       final two are 6/8)
e|----------------------------------------------------|
B|--------0-------------------0--3--------------------|
G|-----0------2---------0--2------------0-------------|
D|--2------------4--0--------------------------0------|
A|----------------------------------------------------|
E|-[0]-------[2]-------[3]-------------[3]------------|

(3:25)
e|--------------------------------------------------------------|
B|--------3--3--0----------5--5---------------------------------|
G|--0--4----------------4--------5------------------------------|
D|----------------4--5--------------5---------------------------|
A|----------[5]--------------[3]---------5--3-------3--5--3--5--|
E|-[3]--------------[0]--------------------------5--------------|

(3:31)
e|-----------------------------------------------------------------|
B|--------0-----------------3--3-------3--3-------3--3-------3--3--|
G|-----0------2-------------4--4-------4--4-------4--4-------4--4--|
D|--2------------4--0-------5--5-------5--5-------5--5-------5--5--|
A|--------------------------------[5]-------------------[5]--------|
E|-[0]-------[2]-------[3]-------------------[3]-------------------|

(3:38)
e|----------------------------------------0------------------------|
B|--3---------3--------3-----3------0--3------3-0------------------|
G|-----4------------------4------0-----------------0----2----------|
D|--------5------4-----------------------------------------2----0--|
A|-----------[5]----------------[3]--------------------------------|
E|-[3]----------------[0]------------------------------------------|

(3:43)
  Em  D/F# G      G      G   D   Em  C      C
e|-3---2-----------------------------0------0------|
B|-0---3---3------3------3---7---8---1------1------|
G|-0---2---0------0------0---7---9---0------0------|
D|-2---0---0------0------0---7---9---2------2------|
A|---------------------------5---7---3------3------|
E|-0---2---3------3------3-------0-----------------| (x3)

"And what's the worst I'd see..."
e|-3---2-----------------------------------------------|
B|-0---3---3------3------3---7---8---------------0-----|
G|-0---2---0------0------0---7---9---0---0---0-2---2-0-|
D|-2---0---0------0------0---7---9-----4---2-----------|
A|---------------------------5---7---3-3-3-3-3-3-3-3-3-|
E|-0---2---3------3------3-------0---------------------|

"And how long..."
e|-------------------------|
B|-------0-----------0-----|
G|---0-2---2-0---0-2---2-0-|
D|-2-----------2-----------|
A|-3-3-3-3-3-3-3-3-3-3-3-3-|
E|-------------------------| (x2)
 
(4:39)
e|--------------------------------|
B|-------0-----------0------------|
G|---0-2---2-0---0-2---2-0--------|
D|-2-----------2-----------2------|
A|-3-3-3-3-3-3-3-3-3-3-3-3-3------|
E|--------------------------------|

(4:46)
   Em      D/F#    G                G       D       Em      C
e|-3--3--3-2--2--2------------------------------------------0----------------|
B|-0--0--0-3--3--3-0----------------3--3----7--7----0--0----1----------------|
G|-0--0--0-2--2--2-4----------------4--4----7--7----0--0----0----------------|
D|-2--2--2-0--0--0-5----------------5--5----7--7----2--2----2----------------|
A|-2--2--2--------------------------5--5----5--5----2--2----3----------------|
E|-0--0--0-2--2--2-3----------------3--3------------0--0---------------------| (x5)

(4:51)
   Em      D/F#    G                G       D       Em      E
e|-3--3--3-2--2--2------------------------------------------0----------------|
B|-0--0--0-3--3--3-0----------------3--3----7--7----0--0----0----------------|
G|-0--0--0-2--2--2-4----------------4--4----7--7----0--0----1----------------|
D|-2--2--2-0--0--0-5----------------5--5----7--7----2--2----2----------------|
A|-2--2--2--------------------------5--5----5--5----2--2----2----------------|
E|-0--0--0-2--2--2-3----------------3--3------------0--0----0----------------|

(5:53)

[Outro - Bitter Suite 1 and 2 Reprise]
(Note: Time signature is now just 6/8)
   E                       C                     D
e|-0-----0-----0-----0-----0-----0-----0-----0---2-|
B|-0-----0-----0-----0-----1-----1-----1-----1---3-|
G|-1-----1-----1-----1-----0-----0-----0-----0---2-|
D|-2-----2-----2-----2-----2-----2-----2-----2---0-|
A|-2-----2-----2-----2-----3-----3-----3-----3-----|
E|-0-----0-----0-----0-----------------------------| (x4)

(6:02)
...or alternatively, you could play the piano part as follows:
e|-----7-8-7-------7-8-7-------7-8-7-------7-8-7---|
B|---9-------9---9-------9---9-------9---9-------9-|
G|-9-----------9-----------9-----------9-----------|
D|-------------------------------------------------|
A|-------------------------------------------------|
E|-------------------------------------------------|

e|-----7-8-7-------7-8-7-------7-8-7-------7-------|
B|---8-------8---8-------8---8-------8---8---8---7-|
G|-9-----------9-----------9-----------9-------7---|
D|-------------------------------------------------|
A|-------------------------------------------------|
E|-------------------------------------------------|

e|-----7-8-7-------7-8-7-------7-8-7-------7-8-7---|
B|---9-------9---9-------9---9-------9---9-------9-|
G|-9-----------9-----------9-----------9-----------|
D|-------------------------------------------------|
A|-------------------------------------------------|
E|-------------------------------------------------|

e|-----7-8-7-------7-8-7-------7-8-7-------7-------|
B|---8-------8---8-------8---8-------8---8---8---7-|
G|-9-----------9-----------9-----------9-------7---|
D|-------------------------------------------------|
A|-------------------------------------------------|
E|-------------------------------------------------|

e|-----7-8-7-------7-8-7-------7-8-7-------7-8-7---|
B|---9-------9---9-------9---9-------9---9-------9-|
G|-9-----------9-----------9-----------9-----------|
D|-------------------------------------------------|
A|-------------------------------------------------|
E|-------------------------------------------------|

e|--------8-7-------7-8-7-------7-8-7-------7-------|
B|---8-10-----8---8-------8---8-------8---8---8---7-|
G|-9------------9-----------9-----------9-------7---|
D|--------------------------------------------------|
A|--------------------------------------------------|
E|--------------------------------------------------|

e|-----7-8-7-------7-8-7-------7-8-7-------7-8-7---|
B|---9-------9---9-------9---9-------9---9-------9-|
G|-9-----------9-----------9-----------9-----------|
D|-------------------------------------------------|
A|-------------------------------------------------|
E|-------------------------------------------------|

e|-----7-8-7-------7-8-7-------7-8-7-------7-8-----|
B|---8-------8---8-------8---8-------8---8---------|
G|-9-----------9-----------9-----------9-------7---|
D|-------------------------------------------------|
A|-------------------------------------------------|
E|-------------------------------------------------|

   Am    Em    C     G
e|-0-----0-----0-----3-----|
B|-1-----0-----1-----3-----|
G|-2-----0-----0-----0-----|
D|-2-----2-----2-----0-----|
A|-0-----2-----3-----------|
E|-------0-----------3-----|

"Where's your heart..." (7:12)
e|-0-----0-----0-----------|
B|-1-----0-----1-----------|
G|-2-----0-----0-----------|
D|-2-----2-----2-----------|
A|-0-----2-----3-----------|
E|-------0-----------------|

"She's naive..."
e|-----7-8-7-------7-8-7-------7-8-7---0-----------|
B|---8-------8---8-------8---8-------8---1-0-------|
G|-9-----------9-----------9-----------------0-----|
D|---------------------------------------------2---|
A|-----------------------------------------------3-|
E|-------------------------------------------------|

(7:26)
e|-----------2-3-5-6--10--11---14---15-|
B|-------3-4---------------------------|
G|---2-3-------------------------------|
D|-0-----------------------------------|
A|-------------------------------------|
E|-------------------------------------|

(7:36)
[Mustard Gas Reprise]
e|-10--8--10----------8------------------------|
B|--------------10-------------11--------8-----|
G|---------------------------------11-------8--|
D|---------------------------------------------|
A|---------------------------------------------|
E|---------------------------------------------|

(7:45)
e|-10--8--10----------8------------------------|
B|--------------10-------------11--------8-----|
G|---------------------------------11----------|
D|---------------------------------------------|
A|---------------------------------------------|
E|---------------------------------------------|

(7:49)
e|-10--8--10----------8------------------------|
B|--------------10-------------11--------8-----|
G|---------------------------------11-------8--|
D|---------------------------------------------|
A|---------------------------------------------|
E|---------------------------------------------|

(7:53)
...or alternatively you could play the underlying part
e|----------------------|
B|----------------------|
G|-----2-------3--------|
D|-0---4---0---5--------|
A|----------------------|
E|----------------------| (x3)

(7:45)
e|-2--3--2--3--5--3--2--------|
B|----------------------4-----|
G|-2--3--2--3--5--3--2--------|
D|-0--0--0--0--0--0--0--4-----|
A|----------------------------|
E|----------------------------|

(7:58)

            
            
Suggest correction
Creating personal tab
Creating personal tab
You can edit any tab online and save it as your Personal.

You can edit, replace or remove any tab part or add personal notes – all changes will be seen only by you.

Personal tabs can be accessed anytime from any device, even offline.
Learn more »
Give kudos to tab author, rate the tab!
1 2 3 4 5
comments
print report bad tab
guest
You may want to rate the tab now too:
select rating
Wanna post a correction for this tab? Suggest correction