Oops, an error
Loading. Please wait.

City Escape tab

version 2
version 2

Whole song

Interactive

1,862 views 9 this week
no commentswrite comment
1 2 3 4 5
2 more votes to show rating
add to favorites
×
Save as Personal and add changes to this tab that will be seen only by you. Learn more ›
×
You can save this tab as Personal to edit and correct it or add notes. All changes will be seen only by you. Learn more »
launch autoscroll
font size
0
reset
how to read this tab
guitar tuner
edit
Autoscroll
slow
fast
+/-
esc
set tempo
stop
Author
Difficulty
Title: City Escape
Artist: The Dear Hunter
Album: Act I: The Lake North, The River South
Tabbed by: Shrugs

-Standard Tuning
-4/4 Time Signature

This whole tab has been done by ear so please tell me if you find any little mistakes! 
me it sounds accurate, but the band has 4 guitarists so I feel like I might have combined 
of their parts during the choruses, but oh well, it makes a fuller sound.

Intro:
   Dm
E|-------------------|-----------------|------------------|-----------------|
B|-------------------|-----------------|------------------|-----0h2p0-------|
G|-------------------|-----------------|------------------|-0h3-------3p2p0-|
A|-----3---------3---|-5-5-5-5-5—3p2p0-|-----3--------3---|-----------------|
D|-4-----5---4-----5-|-----------------|-4-----5--4-----5-|-----------------|
E|---5---------5-----|-----------------|---5--------5-----|-----------------|

   Dm                                                       A
 |-------------------|-----------------|------------------|----------------:|
 |-------------------|-----------------|------------------|-5-5-5-5-5------:|
 |-------------------|-----------------|------------------|-6-6-6-6-6------:|
 |-----3---------3---|-5-5-5-5-5—3p2p0-|-----3--------3---|-7-7-7-7-7------:|
 |-4-----5---4-----5-|-----------------|-4-----5--4-----5-|-0--------------:|
 |---5---------5-----|-----------------|---5--------5-----|----------------:|

   Tremolo picking (over second repeat of intro)
E|-------------------------------------------------------------------------:|
B|-17///////5///////////////////////////15////////6////////////////////////:|
G|-------------------------------------------------------------------------:|
A|-14///////2///////////////////////////12////////3////////////////////////:|
D|-------------------------------------------------------------------------:|
E|-------------------------------------------------------------------------:|

Verse:
   Dm
E|-5/-----------------------------------------------------:|
B|-6/--------5-5-5-6----5---3-----8-8-8-10----10/---5--5--:|
G|-7/--------5-5-5-7----2---3-----9-9-9-10----10/---6--6--:|
A|-0------------------------------------------------------:|
D|--------------------------------------------------------:|
E|--------------------------------------------------------:|

Chorus:
   Dm                                A
E|---------------------------------|---------------------------------|
B|-6--6-6-6---6--6-6-6---6-6-6-6-6-|------------5--5-5-5--5-5-5-5-5--|
G|-7--7-7-7---7--7-7-7---7-7-7-7-7-|-6--6-6-6------------------------|
A|-7--7-7-7---7--7-7-7---7-7-7-7-7-|-7--7-7-7---7--7-7-7--7-7-7-7-7--|
D|---------------------------------|-4--4-4-4---4--4-4-4--4-4-4-4-4--|
E|-6--6-6-6---6--6-6-6---6-6-6-6-6-|---------------------------------|

   Bmaj7
e|---------------------------------|---------------------------------|
B|-6--6-6-6---6--6-6-6---6-6-6-6-6-|---------------------------------|
G|-7--7-7-7---7--7-7-7---7-7-7-7-7-|---------------------------------|
A|-7--7-7-7---7--7-7-7---7-7-7-7-7-|---------------------------------|
D|-8--8-8-8---8--8-8-8---8-8-8-8-8-|-1--0-----------4--8--5----------|
E|---------------------------------|-------3--1--0-------------------|

   Dm                                A
E|---------------------------------|---------------------------------|
B|---------------------------------|------------5--5-5-5--5-5-5-5-5--|
G|-7--7-7-7---7--7-7-7---7-7-7-7-7-|-6--6-6-6------------------------|
A|-7--5-------7--5-------7-7-7-7-7-|-7--7-7-7---7--7-7-7--7-7-7-7-7--|
D|------8-5--------8-5-------------|-4--4-4-4---4--4-4-4--4-4-4-4-4--|
E|-6--6-6-6---6--6-6-6---6-6-6-6-6-|---------------------------------|

   Db-dim
e|-----------------------------------------------------------------------|
B|-8---8--8—-8----8---8—-8--8----8--8--8--8--8--|------------------------|
G|-9---9--9--9----9---9--9--9----9--9--9--9--9--|-----------------7/-----|
A|-11--11-11-11---11--11-11-11---11-11-11-11-11-|------------------------|
D|-0---0--0--0----0---0--0--0----0--0--0--0--0--|-0-1-0-4-0-5-0-8-5/-----|
E|-----------------------------------------------------------------------|

Verse:
   Dm
E|-5/-----------------------------------------------------:|
B|-6/--------5-5-5-6----5---3-----8-8-8-10----10/---5--5--:|
G|-7/--------5-5-5-7----2---3-----9-9-9-10----10/---6--6--:|
A|-0------------------------------------------------------:|
D|--------------------------------------------------------:|
E|--------------------------------------------------------:|

(Trippy part)

2nd and 3rd Chorus:
   Dm                                A
E|---------------------------------|--------------------------------|
B|---------------------------------|------------5--5-5-5--5-5-5-5-5-|
G|-7--7-7-7---7--7-7-7---7----7----|-6--6-6-6-----------------------|
A|-7--5-------7--5-------5----7----|-7--7-7-7---5--5-5-5--5-5-5-5-5-|
D|------8-5--------8-5-------------|-4--4-4-4---4--4-4-4--4-4-4-4-4-|
E|-6--6-6-6---6--6-6-6---6----6----|--------------------------------|

   Bmaj7
e|---------------------------------|--------------------------------|
B|-6--6-6-6---6--6-6-6---6-6-6-6-6-|--------------------------------|
G|-7--7-7-7---7--7-7-7---7-7-7-7-7-|--------------------------------|
A|-7--7-7-7---7--7-7-7---7-7-7-7-7-|--------------------------------|
D|-8--8-8-8---8--8-8-8---8-8-8-8-8-|-1--0-----------4--8--5---------|
E|---------------------------------|-------3--1--0------------------|

   Dm                                A
E|--------------------------------|---------------------------------|
B|--------------------------------|------------5--5-5-5--5-5-5-5-5--|
G|-7--7-7-7---7--7-7-7----7---7---|-6--6-6-6------------------------|
A|-7--5-------7--5--------5---7---|-7--7-7-7---5--5-5-5--5-5-5-5-5--|
D|------8-5--------8-5------------|-4--4-4-4---4--4-4-4--4-4-4-4-4--|
E|-6--6-6-6---6--6-6-6----6---6---|---------------------------------|

   Db-dim
e|--------------------------------------------|---------------------|
B|-8---8--8—-8---8---8—-8--8---8--8--8--8--8--|---------------------|
G|-9---9--9--9---9---9--9--9---9--9--9--9--9--|-----------------7/--|
A|-11--11-11-11--11--11-11-11--11-11-11-11-11-|---------------------|
D|-0---0--0--0---0---0--0--0---0--0--0--0--0--|-0-1-0-4-0-5-0-8-5/--|
E|--------------------------------------------|---------------------|
Suggest correction
Creating personal tab
Creating personal tab
You can edit any tab online and save it as your Personal.

You can edit, replace or remove any tab part or add personal notes – all changes will be seen only by you.

Personal tabs can be accessed anytime from any device, even offline.
Learn more »
Give kudos to tab author, rate the tab!
1 2 3 4 5
comments
print report bad tab
guest
You may want to rate the tab now too:
select rating
Wanna post a correction for this tab? Suggest correction