Oops, an error
Loading. Please wait.

Dear Ms Leading chords

10,148 views 12 this week
5 commentsread comments
1 2 3 4 5
x 9
add to favorites
×
Save as Personal and add changes to this tab that will be seen only by you. Learn more ›
×
You can save this tab as Personal to edit and correct it or add notes. All changes will be seen only by you. Learn more »
launch autoscroll
font size
0
reset
transpose
0
reset
display chords
guitar tuner
edit
Autoscroll
slow
fast
+/-
esc
set tempo
stop
Author
Strumming
There is no strumming pattern for this song yet. and get +5 IQ
Here you all are.

|--------------------|
|--Dear Ms. Leading--|
|--------------------|

*Intro*:

|------------------------------------------|
|------------------------------------------|
|------------------------------------------|
|--2---------------------------------2222--|
|--2--7-9-10-7--7-9-10-7--7-9-10-7---2222--|
|--0---------0---------0---------0---0000--|
                                     PM-|

violin part:

|---------------10-12-13---|--12-------|
|----------8-11------------|--12-------|
|-----8-10-----------------|--12-------|
|-8~-----------------------|-----------|
|--------------------------|-(guitar)--|
|--------------------------|--(delay)--|

Thanks to Gugnums for these parts

*Verse*

Em           Bm            Am 
Dear Ms. Leading I hate to tell you that

     C                B
I no longer need your services

Em         Bm                       Am
The bitter fabricating manufacturer of lust

C             B            Em 
You have been presented as doesn't do a thing for me

  Bm
I now know your identity

  Am                                   C           B
A black widow who tempts her pray with promises of love

   Em                              Bm                           Am
If ignorance is bliss, wish I were blissfully ignorant, but I'm not

                      C              B
I'm enlightened now - light has been presented to me

Em
In spite of you


*Chorus*

C                B                Em               Am
Come now Ms. Leading, I regret to inform you, I've fallen out of lust

C             B
It must be so hard to understand

C                         B                   Em
Did you really think me a fool enough to play along

     Am                                C
Make believing everything you said was true?

                  B                           Em
Push your pouting lips on other unsuspecting lovers


*Verse*

Same chords as the first verse

Dear Ms. Leading in response to your response, I'm simply unavailable
I hope you got the message in the message that I sent
Shame on me for falling for someone so dense
In different times I might have fooled around for something warm
Something with security
As fleeting as the momentary rapture and the pleasure of
                                                   Eb    Gb
Collapsing in arms so welcoming to other just like me


*Break*

Em  Em  Eb  Gb

*Solo*

Same chords as Verse

*Repeat Chorus*
Suggest correction
Creating personal tab
Creating personal tab
You can edit any tab online and save it as your Personal.

You can edit, replace or remove any tab part or add personal notes – all changes will be seen only by you.

Personal tabs can be accessed anytime from any device, even offline.
Learn more »
comments
print report bad tab
5 comments total. Showing first comments.
+1 reply
Gugnums 173 Aug 06, 2009 09:57 PM

(Violin) Repeat
e|-----------------------------------------------10-12-13--------------------|
B|------------------------------------------8-11-----------------------------|
G|-------------------------------------8-10----------------------------------|
D|2---2-4-5-2---2-4-5-2-4-5-2—---8~------------------------------------------|
A|2---------0---------------0----------------------------------------------|
E|0---------0---------------0----------------------------------------------|
Delay
e|--------------------------------12-----------------------------------------|
B|--------------------------------12-----------------------------------------|
G|--------------------------------12-----------------------------------------|
D|2---2-4-5-2---2-4-5-2—-2-4-5-2—--------------------------------------------|
A|2---------2---------2--------0---------------------------------------------|
E|0---------0---------0--------0---------------------------------------------|

Hey here is a bit of the intro. I dont think yours is right. chords are spot on though

0 reply
Gugnums 173 Aug 06, 2009 09:58 PM

well the the spacing on the words isn't right so the delay should be moved over.

0 reply
uiop21 349 Aug 08, 2009 07:28 PM

Yea, your right on that, my ear must be failing

guest
You may want to rate the tab now too:
select rating
Wanna post a correction for this tab? Suggest correction