Oops, an error
Loading. Please wait.

Echo intro tab

version 1
version 1

Intro

Whole song

869 views 1 this week
1 commentread comment
1 2 3 4 5
3 more votes to show rating
add to favorites
×
Save as Personal and add changes to this tab that will be seen only by you. Learn more ›
×
You can save this tab as Personal to edit and correct it or add notes. All changes will be seen only by you. Learn more »
launch autoscroll
font size
0
reset
how to read this tab
guitar tuner
edit
Autoscroll
slow
fast
+/-
esc
set tempo
stop
Author
This is not perfect but it sounds close. I am working on the rest of the song but my ear 
is not good enough. Hopefully this faulty intro will inspire all you real musicians to 
properly tab the entire song? Ha, I would appreciate it.

E ----------------------------------------------------|
B -----------------------------------0----------------|
G -------------------------------1h2---2p1------------|
D -----2-2-----0h2-2-----2-2---------------0h2--------|
A ----------------------------------------------------|
E -0-0-----0-0-------0-0------0-----------------------|

            
            
Suggest correction
Creating personal tab
Creating personal tab
You can edit any tab online and save it as your Personal.

You can edit, replace or remove any tab part or add personal notes – all changes will be seen only by you.

Personal tabs can be accessed anytime from any device, even offline.
Learn more »
Give kudos to tab author, rate the tab!
1 2 3 4 5
comments
print report bad tab
1 comment total.
0 reply
msulli54 10 Apr 09, 2016 10:13 AM

Based on what Rob does in the "Live at the Show- Altar TV" video, I think the intro is played like this.

E --------------------------------------------------|
B --------------------------------------------------|
G --------------------------------------------------|
D ------------------------------------9-------------|
A -----7-7-----5h7-7-----7-7-----9h11---11h9--------|
E -0-0-----0-0-------0-0------0-0------------10-----|

guest
You may want to rate the tab now too:
select rating
Wanna post a correction for this tab? Suggest correction