Oops, an error
Loading. Please wait.

Girl Bass Tab

31 views 12 this week
no commentswrite comment
1 2 3 4 5
2 more votes to show rating
add to favorites
launch autoscroll
font size
0
reset
guitar tuner
Autoscroll
slow
fast
+/-
esc
set tempo
stop
Help us to improve Ultimate-Guitar.com Take our survey!
×
Author
Difficulty
intermediate
-------------------------------------------------------------------------------
                             Girl - The Dear Hunter
-------------------------------------------------------------------------------
Tabbed by: David Benitez
E-mail: debml700@gmail.com

Tuning: Standard (EADG)

[Intro]
G|---------------------------|
D|---------------------------|
A|---------------------------| x2
E|-7--7--7\----5-7-8-8-8\----|


[Verse]
G|----|---------------------------------|----------------------------|
D|----|---------------------------------|----------------------------|
A|----|---------------------------------|----------------------------|
E|-5\-|-7--7--7\----5-7-8-8-8\----3\----|--7--7--7\----5-7-8-8-8\----|


[Chorus 1]
G|-------------------------------------------------------|
D|--------------------------------------------------5----|
A|----------------------------------------------5-7------|
E|-1--1--1--1--1--1--3--3--1--1--1--1--5--5-7-8----------|

G|------------------------------------------------------|
D|------------------------------------------------------|
A|------------------------------------------------------|
E|-1--1--1--1--1--1--3--3--1--1--1--1--1--1--3-3-3-3----|


[Post Chorus]
G|------------------------------------------------------------------|
D|------------------------------------------------------------------|
A|-----5-7------------5-7-------------------------------------------| x2
E|-5-8------5\----5-8------5\----7--7--7\----5-7-8-8-8\----3-3-3----|


[Chorus 2]
G|-------------------------------------------------------|
D|--------------------------------------------------5----|
A|----------------------------------------------5-7------|
E|-1--1--1--1--1--1--3--3--1--1--1--1--5--5-7-8----------|

G|------------------------------------------------------|
D|------------------------------------------------------|
A|------------------------------------------------------|
E|-1--1--1--1--1--1--3--3--1--1--1--1--1--1--3-3-3-3----|


[Bridge]
G|--------------------------------------------------------------------|
D|-----------------------------------------7---------------7----------|
A|-------5-7-7-5---------5-7-7-5---6-6-6-6---6-6-6-5-5-5-5---5--------| x3
E|-5-5-8---------8-5-5-8---------8-----------------------------8-8----|

G|----------------------------------------------------------------------|
D|----------------------------------------------------------------------|
A|---------------------------------------------------/7-7-7-7-7-7-7\----|
E|-1-1-1-1-1-1-1-1-1-1-1-1-1-1-1-1-0-0-0-0-0-0-0-0-0--------------------|


[Outro]
G|------------------------------------------------------------------|
D|------------------------------------------------------------------|
A|-----5-7------------5-7-------------------------------------------| x2
E|-5-8------5\----5-8------5\----7--7--7\----5-7-8-8-8\----3-3-3----|

************************************

| /   slide up
| \   slide down

************************************
Suggest correction
Give kudos to tab author, rate the tab!
1 2 3 4 5
comments
print report bad tab
guest
You may want to rate the tab now too:
select rating
Wanna post a correction for this tab? Suggest correction