Oops, an error
Loading. Please wait.

He Said He Had A Story bass

version 1
version 1

Whole song

Interactive

2,055 views 3 this week
no commentswrite comment
1 2 3 4 5
x 3
add to favorites
×
Save as Personal and add changes to this tab that will be seen only by you. Learn more ›
×
You can save this tab as Personal to edit and correct it or add notes. All changes will be seen only by you. Learn more »
launch autoscroll
font size
0
reset
guitar tuner
edit
Autoscroll
slow
fast
+/-
esc
set tempo
stop
Author
Difficulty
0:17-0:30

G|---------------------------------------------------------|
D|2h3-2-0------------------------------0-------------------|
A|--------3-2---2---2---22---23---33--3--7\0----------3----|
E|------------0---0---0----02---3----3-------7\0-00-2---5\0|


0:31-0:41
"She had disrobed and she was waiting on the floor..."

G|---------------------|
D|---------------------|
A|---------------------|
E|3h5\0---3h5\0---3h5\0|


0:42-0:54
"(What did you say?) I said, 'Stand up and move your body to the bed...'"

G|-------------------------------------------------------|
D|2h3-2-0------------------------------0-----------------|
A|--------3-2---2---2---22---23---33--3--7\0----------2h3|
E|------------0---0---0----02---3----3-------7\0-00-2----|


0:55-1:19
"Please be soft and sweet to me..."

(I'm not totally sure if the bass even plays this part, 
                               but I tabbed it anyways)
G|--------------------2-0---------------------------|
D|------------------------3-2-0---------------------|
A|--------------0-2-3-----------33------------------|
E|1---2---3---4--------------------1-0-1-0-1-0---5\0|


1:20-1:28
"I broke a smile, reminding that I paid her well...

G|---------------------|
D|---------------------|
A|---------------------|
E|3h5\0---3h5\0---3h5\0|


1:29-1:42
"(So was it good?) Oh, it felt like heaven, but I'm sure she was in hell..."

G|-------------------------------------------------------|
D|2h3-2-0------------------------------0-----------------|
A|--------3-2---2---2---22---23---33--3--7\0----------2h3|
E|------------0---0---0----02---3----3-------7\0-00-2----|


1:43-2:13
"Break and bind yourself to me...

G|------------------------------------------------------------------------>
D|------------------------------------------------------------------------>
A|------------------------------------55555555---------------------------->
E|11111111-44444444-55555555-11111111----------44444444-55555555-55555555->

                                                   <----------------------|
                                                   <----------------------|
                                                   <-55555555-77777777----|
                                                   <-------------------5\0|

2:14-2:24

G|---------------------|
D|---------------------|
A|---------------------|
E|3h5\0---3h5\0---3h5\0|


2:25-2:48

G|-----------------------------------|      ||*-----------------------*||
D|-----------------------------------|      ||*-----------------------*||
A|-----------------------------------|      ||*0-3p2-3p2-0-0-3p2-3p2-0*||
E|55555555-55555555-55555555-55555555|      ||*-----------------------*||[x3]


2:49-3:18
"Break and bind yourself to me...

G|------------------------------------------------------------------------>
D|------------------------------------------------------------------------>
A|------------------------------------55555555---------------------------->
E|11111111-44444444-55555555-11111111----------44444444755555555-55555555->

                                                    <---------------------|
                                                    <--------5-----66667\0|
                                                    <-5555578--7777-------|
                                                    <---------------------|


3:19-END

G|-------------------------|
D|-------------------------|
A|-------------------------|
E|3h5\0---3h5\0---3h5\0---5|

            
            
Suggest correction
Creating personal tab
Creating personal tab
You can edit any tab online and save it as your Personal.

You can edit, replace or remove any tab part or add personal notes – all changes will be seen only by you.

Personal tabs can be accessed anytime from any device, even offline.
Learn more »
Give kudos to tab author, rate the tab!
1 2 3 4 5
comments
print report bad tab
guest
You may want to rate the tab now too:
select rating
Wanna post a correction for this tab? Suggest correction