Oops, an error
Loading. Please wait.

In Cauda Venenum bass

version 1
version 1

Whole song

Interactive

2,980 views 33 this week
1 commentread comment
1 2 3 4 5
x 3
add to favorites
×
Save as Personal and add changes to this tab that will be seen only by you. Learn more ›
×
You can save this tab as Personal to edit and correct it or add notes. All changes will be seen only by you. Learn more »
launch autoscroll
font size
0
reset
guitar tuner
edit
Autoscroll
slow
fast
+/-
esc
set tempo
stop
Author
Difficulty
0:00-0:41
G||*---------2-----2-----0-1-0------------0-1-0--->
D||*0-0-00-3---0-3---0-3-------3-0-0-00-3-------3-> Alternate intro at
A||*----------------------------------------------> the bottom.
E||*---------------------------------------------->

 <-----------------*||      ||*----------------*||----------|
 <-----------------*||      ||*----------------*||----------| Play on the 2nd
 <-5-5-555--5-5-555*||      ||*5-5-555--5-5-555*||-5-5-5-5\0| repeat.
 <-----------------*|| [2x] ||*----------------*||----------|
         
Rest from 0:26-0:39

0:41-0:46
"A majesty's massacre floods the fields of red..."    
                                     
                                         [12's]
G||*------------------------------------------*||
D||*-----------12-12----------------12-12-1212*||
A||*-----------------12-----------------------*||
E||*10-10-1010-----------10-10-1010-----------*|| [x2]
         [10's]               [10's]

046:-0:53
G|------------------------------------------------------6h7p6|
D|------------------------------------------7-7-------7------|
A|13-13------12-12----10-10----8-8--------7-----7-8-7--------|
E|------1010-------10-------99-----10-9-9--------------------|
           
0:53-0:58
G|--------------------|
D|77-77-777-88-88-7777|
A|--------------------|
E|--------------------|

0:59-1:13
"And now, with our hands aligned..."
G|------------------------------------------------>
D|------------------------------------------------>
A|55-555-5-555-5-555-5-55-77-777-7-777-7-777-7-77->
E|------------------------------------------------>

 <------------------------------------------------|
 <-55-555-5-555-5-555-5-55-33-333-3-333-3-333-3-33|
 <------------------------------------------------|
 <------------------------------------------------|


1:14-1:33
G|-----------------------------------7------------------------------------>
D|7-5---------------------------7------7----------------------------8---8->
A|----7-------------8-----8-7-5---5------5-5-5-5-3------------8-------8--->
E|------5-5-5-5-5-5---5-5-------------------------6-6-6-6-6-6---6-6------->

     <---------------------------------------------7----------------------|
     <------7-----7-----7------8-8-8-8-8-8-8-8-8-8---8-7-7-7-7-7-7-7-7-7-7|
     <----7-----7-----7---7-----------------------------------------------|
     <5-5-----5-----5-------5---------------------------------------------|


1:34-1:40
"We've never been so excited to see you be(fore)..."

G|7-------------------------|    
D|--10-8-7------------------|
A|---------10-8-7-----------|
E|----------------10-8-6-5-5|


1:41-1:54

G||*---------2-----2-----0-1-0------------0-1-0--*||
D||*0-0-00-3---0-3---0-3-------3-0-0-00-3-------3*||
A||*---------------------------------------------*||
E||*---------------------------------------------*|| [2x]

1:55-2:34
"In the cradle we are helpless..."

G|----------------------0--------------------------------------------------->
D|--------------3-2---2------------3-2-------------5-5-7-8-7-5-7\0--7-7-5-3->
A|5-5-555\0--55-----4------4\0--55---------4-4-7-7-------------------------->
E|-------------------------------------6-6---------------------------------->

          <----------------------0------------------------------------------>
          <--------------3-2---2-----------3-2--------------5-5-7-8-7-5-7\0->
          <5-5-3-5\0--55-----4-----4\0--55----------4-4-7-7----------------->
          <------------------------------------6-6-5---5---5---------------->

          <-----------------|
          <----5-8---8-7----|
          <--5-----8-----7-4|
          <3----------------|

G||*-----------------------------------------------*||
D||*------------------------------5---5-8---8-7----*||
A||*--7-4---7-4---7-4---7-4---7-4---5-----8-----7-4*||
E||*5-----5-----5-----5-----5----------------------*|| [2x]


2:35-2:48

G|-------------------------------------------|
D|77-77-777-88-88-55-55-----------88-88-77-77|
A|----------------------88-88-888------------|
E|-------------------------------------------|


2:59-3:25
"Now, with hands aligned..."

G||*---------------------------------------------------------------*||
D||*--------------------------------555-555-555-555-333-333-333-333*||
A||*555-555-555-555-777-777-777-777--------------------------------*||
E||*---------------------------------------------------------------*|| [2x]


3:26-3:45
"And we cry 'We cannot allow this'..."

G|---------------------------------------------------------------->
D|777-777-777-777------------------------------------------------->
A|----------------555-555-555-555--------------------------------->
E|--------------------------------666-666-666-656-565-555-555-555->

                                <---------------------------------|
                                <555-555-555-555-777-777-777-777\0|
                                <---------------------------------| 
                                <---------------------------------|


3:47-3:59
"We've never been so excited to see you be..."

G|7-------------------------||
D|--10-8-7------------------||
A|---------10-8-7-----------||
E|----------------10-8-6-5-5||



4:00-4:41
"Oh, when I think about your eyes..."

G||*--------------------------*|| Play the 9 on the third 
D||*--------------------------*|| repeat.
A||*8~-----8~---10~-----------*||
E||*-----8-----------10-8---9~*|| [3x] 

4:42-5:29
"Travel all this way just to find love..."

G||*--------------------------------------------*||
D||*--------------------------------------------*||
A||*---0-3-5-3----0-33-53----1-3-5-4--3--3-5-3-5*||
E||*1-----------1---------3---------------------*|| [4x]








Alternate intro.
0:00-0:41

G||*----------------------------------------------->
D||*--------3----3-----3-----3-----------3-----7-6-> 
A||*5-5-5-5--4-5---4-5---4-5---4-5-5-5-5---4-5----->
E||*----------------------------------------------->

 <------------------*||         ||*-----------------*||----------|
 <------------------*||         ||*-----------------*||----------| 
 <-5-5-555---5-5-555*||         ||*5-5-555---5-5-555*||-5-5-5-5\0|
 <------------------*|| [2x]    ||*-----------------*||----------|


Tab by A. Romanski

            
            
Suggest correction
Creating personal tab
Creating personal tab
You can edit any tab online and save it as your Personal.

You can edit, replace or remove any tab part or add personal notes – all changes will be seen only by you.

Personal tabs can be accessed anytime from any device, even offline.
Learn more »
Give kudos to tab author, rate the tab!
1 2 3 4 5
comments
print report bad tab
1 comment total.
0 reply
Janky_Hoopty 500 Aug 24, 2009 03:20 PM

Version 1 and Version 2 and the same thing, I just re-posted them because I forgot to sign in when I posted it the first time.

guest
You may want to rate the tab now too:
select rating
Wanna post a correction for this tab? Suggest correction