Oops, an error
Loading. Please wait.

Life And Death bass

654 views 3 this week
no commentswrite comment
1 2 3 4 5
1 last vote to show rating
add to favorites
×
Save as Personal and add changes to this tab that will be seen only by you. Learn more ›
×
You can save this tab as Personal to edit and correct it or add notes. All changes will be seen only by you. Learn more »
launch autoscroll
font size
0
reset
guitar tuner
edit
Autoscroll
slow
fast
+/-
esc
set tempo
stop
Drop D tuning


0:29-1:03
"Oh, what a mess..."

G||*--------------------------------------------------*||--------|
D||*------3h5-----------------------(1's)----------0-3*||5~~~~---|
A||*----5-------3-5---3-5---------3---11-3---3-1-3----*||--------|
D||*5---------------------7--0-----------------------[x2]--------|

1:04-1:21
"Searching was so long ago..."

G|---------------------------------------------|
D|---------------------------------------------|
A|---------------------------------------------|
D|3------1------3------1------3------1---0h1---|

1:22-2:25
"We stand here waiting... Waiting to die..."

G||*-------------------------------------------*||-------------------|
D||*-------------------------------------------*||-------------------|
A||*----------------------3h5---3h5---3h5---3h5*||----3~~~~1~~~~5~~~~|
D||*5---3h5---3h5---3h5------------------------[x4]------------------|

2:26-2:54
"Oh, what a mess..."

G||*------------------------------------------------*||
D||*------3h5---------------------(1's)----------0-3*||
A||*----5-------3-5---3-5-------3---11-3---3-1-3----*||
D||*5---------------------7-0-----------------------*||[x2]

Rest from 2:55-3:12

3:13-3:48
"One of these days he will learn to love again..."

G||*-----------------------*||   |----------------------|
D||*-----------------------*||   |----------------------|
A||*------0-0-0-1-0-1-3-3-3*||   |6-6-6-----------------|
D||*5-5-5------------------*|[x5]|------7-7-7-3-3-3-4~~~|

3:57-4:16

G|------------------------------------------------->
D|------3h5-3-2----------------3h5-3-2------------->
A|----5---------5---5--------5---------5---55------>
D|5----------------7----/5----------------7--7-0--->

                                     <-------------------------|
                                     <----------3h5-3-2--------|
                                     <--------5---------5-----5|
                                     <---3h5---------------7---|
4:17-END

G|------------------------------|
D|------------------------------|
A|3---33---3-1-3-5--------------|
E|-----------------7-5-3-5~~~~~~|


Tab by A. Romanski

            
            
Suggest correction
Creating personal tab
Creating personal tab
You can edit any tab online and save it as your Personal.

You can edit, replace or remove any tab part or add personal notes – all changes will be seen only by you.

Personal tabs can be accessed anytime from any device, even offline.
Learn more »
Give kudos to tab author, rate the tab!
1 2 3 4 5
comments
print report bad tab
guest
You may want to rate the tab now too:
select rating
Wanna post a correction for this tab? Suggest correction