Oops, an error
Loading. Please wait.

Light Tab

version 1
version 1

Live

  • This is from the Live video on YouTube.

Whole song

517 views 3 this week
no commentswrite comment
1 2 3 4 5
3 more votes to show rating
add to favorites
launch autoscroll
font size
0
reset
how to read this tab
guitar tuner
Autoscroll
slow
fast
+/-
esc
set tempo
stop
Help us to improve Ultimate-Guitar.com Take our survey!
×
Author
Difficulty
Tuning
Capo
intermediate
D A D G B E
4th fret
About this tab version
This is from the Live video on YouTube. Was this info helpful? Yes No
This is the tab for the Live version of Light as performed in the video link below.

https://www.youtube.com/watch?v=0bzd2oTHDPU 


[Intro]

e|---------------------------------------------------------------------------|
B|---------------------------------------------------------------------------|
G|---------------------------------------------------------------------------|
D|-2h4-------4-------4-------4-----------------------------------------------|
A|-------0-------0-------0-------0-------------------------------------------|
D|-0---0---0---0---0---0---0---0---0-----------------------------------------|


[Verse 1]

e|---------------------------------------------------------------------------|
B|---------------------------------------------------------------------------|
G|-----------2---0-----------------------------------------------------------|
D|-2h4---------------4---2---0-----------------------------------------------|
A|-------0-----------------------0-------------------------------------------|
D|-0---0---0---0---0---0---0---0---------------------------------------------|

e|---------------------------------------------------------------------------|
B|---------------------------------------------------------------------------|
G|-------0-------0-------0----------0----------------------------------------|
D|---2-------2-------2--------2----------------------------------------------|
A|-----2-------2-------2---------2-------------------------------------------|
D|-2-------2-------2-------2-------------------------------------------------|

Not sure about particular note rhythms but here are the main notes.

e|---------------------------------------------------------------------------|
B|---------------------------------------------------------------------------|
G|------4---2---------------------------0------------------------------------|
D|--------------4-------2---0-----------------4------------------------------|
A|------------------------------0--------------------------------------------|
D|-5-5----5---0---0--0----0---0---2--2-----2-----0---------------------------|

e|-----------------------------------------------------------------------|
B|-----------------------------------------------------------------------|
G|-----------------------------------------------------------------------|
D|-------4-------4-------4-----------------------------------------------|
A|-----------0-------0-------0-------------------------------------------|
D|-0---0---0---0---0---0---0---0-----------------------------------------|


[Chorus]

Not sure about particular note rhythms but here are the main notes.

e|-----0------------------------------------------------------------------------|
B|-2-3---3-2-3-0-------1---2---3------------------------------------------------|
G|-0-----------0-------0---0---2------------------------------------------------|
D|-2-----------2-------2---2---0------------------------------------------------|
A|-0-----------2-------3---0---0------------------------------------------------|
D|-------------2---------------0------------------------------------------------|

e|-----0------------------------------------------------------------------------|
B|-2-3---3-2-3-0-------3---2---0------------------------------------------------|
G|-0-----------0--------------------3-----2-------------------------------------|
D|-2-----------2-----------------------------0--2--0----------------------------|
A|-0-----------2----------------------------------------------------------------|
D|-------------2-------5-5---5---5--5--5--0--0--2--0----------------------------|


[Post-Chorus]

e|---------------------------------------------------------------------------|
B|---------------------------------------------------------------------------|
G|-----------2---0---------------------------2---0---------------------------|
D|-2h4---------------4---2---0----------0------------4---2---0---------------|
A|-------0-----------------------0--------------------------------0----------|
D|-0---0---0---0---0---0---0---0----0---0--0---0---0---0---0---0-------------|

e|---------------------------------------------------------------------------|
B|---------------------------------------------------------------------------|
G|-----0---------0-------0-------0-------------------------------------------|
D|-----------2-------2-------2-----------------------------------------------|
A|-----2-------2-------2-------2---------------------------------------------|
D|-2-------2-------2-------2-------------------------------------------------|


e|---------------------------------------------------------------------------|
B|---------------------------------------------------------------------------|
G|-----0---------0-------0-------0-------------------------------------------|
D|-----------2-------2-------2-----------------------------------------------|
A|-----2-------2-------2-------2---------------------------------------------|
D|-2-------2-------2-------2-------------------------------------------------|


************************************

| h  Hammer-on

************************************
Suggest correction
Give kudos to tab author, rate the tab!
1 2 3 4 5
comments
print report bad tab
guest
You may want to rate the tab now too:
select rating
Wanna post a correction for this tab? Suggest correction