Oops, an error
Loading. Please wait.

Like Crazy Bass Tab

31 views 1 this week
no commentswrite comment
1 2 3 4 5
3 more votes to show rating
add to favorites
launch autoscroll
font size
0
reset
guitar tuner
Autoscroll
slow
fast
+/-
esc
set tempo
stop
Help us to improve Ultimate-Guitar.com Take our survey!
×
Author
Difficulty
intermediate
-------------------------------------------------------------------------------
                             The Dear Hunter - Like Crazy
-------------------------------------------------------------------------------
Tabbed by: David Benitez
E-mail: debml700@gmail.com

Tuning: Standard (EADG)

[Intro]
G|--------------------------------------------|
D|--------------------------------------------|
A|-5--5-5--5--5-5--7---------------------7----|
E|-------------------0-5--5-5--5--0-5--5------|

G|---------------------------------------------|
D|---------------------------------------------|
A|-5--5-5--5--0-5--7--------------------4-0----|
E|-------------------0-5--5-5--5--0-5-7--------|


[Verse 1]
G|--------------------------------------------|
D|--------------------------------------------|
A|-5--5-5--5--0-5--7---------------------7----|
E|-------------------0-5--5-5--5--0-5--5------|

G|---------------------------------------------|
D|---------------------------------------------|
A|-5--5-5--5--5-5--7--------------------4-0----|
E|-------------------0-5--5-5--5--0-5-7--------|

G|--------------------------------------------|
D|--------------------------------------------|
A|-5--5-5--5--5-5--7---------------------7----|
E|-------------------0-5--5-5--5--0-5--5------|

G|---------------------------------------------|
D|---------------------------------------------|
A|-5--5-5--5--0-5--7--------------------4-0----|
E|-------------------0-5--5-5--5--0-5-7--------|


[Pre-Chorus 1]
G|---------------------------------------------------------------|
D|------------------------6---7-7-5---7-7------------------------|
A|--------4-5-/9-7--7-7-9---7-------7-----7-7-5-5-5-0-5-5-0-5----|
E|-7--7-7--------------------------------------------------------|

G|------------------------------------|
D|------------------------------------|
A|-7-7-7-----------7-7-7-7-7-7-7-7----|
E|-------7-0-0-0-7--------------------|


[Chorus 1]
G|---------------------------------------------------------|
D|---------------------------------------------------------|
A|----------------------7-7-7-------7---5-5-5-0-8-7-5-7----|
E|-5--5-5--5--5-5-5-3-3-------7-0-7---7--------------------|

G|---------------------------------------------------------|
D|---------------------------------------------------------|
A|----------------------7-7-7-------7---5-5-5-0-8-7-5-0----|
E|-5--5-5--5--5-5-5-3-3-------7-0-7---7--------------------|

G|-----------------------------------|
D|-----------------------------------|
A|-----------------/10-10-10-10-7----|
E|-3-3-3-3-3-3-3-3-------------------|


[Pre-Verse]
G|-------------------------------------------------------|
D|-------------------------------------------------------|
A|-5--0-5-5--0-5--0-5-5--7----------------------4-0-5----|
E|-------------------------5--0-5-5--0-5--0-5-7----------|


[Verse 2]
G|--------------------------------------------|
D|--------------------------------------------|
A|-5--5-5--5--0-5--7---------------------7----|
E|-------------------0-5--0-5--5--0-5--5------|

G|---------------------------------------------|
D|---------------------------------------------|
A|-5--5-5--5--5-5--5-7------------------4-0----|
E|---------------------5--5-5--5--0-5-7--------|


[Pre-Chorus 2]
G|---------------------------------------------------------------|
D|------------------------6---7-7-5---7-7------------------------|
A|--------4-5-/9-7--7-7-9---7-------7-----7-7-5-5-5-0-5-5-0-5----|
E|-7--7-7--------------------------------------------------------|

G|------------------------------------|
D|------------------------------------|
A|-7-7-7-----------7-7-7-7-7-7-7-7----|
E|-------7-0-0-0-7--------------------|


[Chorus 2]
G|---------------------------------------------------------|
D|---------------------------------------------------------|
A|----------------------7-7-7-------7---5-5-5-0-8-7-5-7----|
E|-5--5-5--5--5-5-5-3-3-------7-0-7---7--------------------|

G|---------------------------------------------------------|
D|---------------------------------------------------------|
A|----------------------7-7-7-------7---5-5-5-0-8-7-5-0----|
E|-5--5-5--5--5-5-5-3-3-------7-0-7---7--------------------|

G|---------------------------------------------|
D|---------------------------------------------|
A|-----------------/10-10-10-10-10-10-10-10----|
E|-3-3-3-3-3-3-3-3-----------------------------|


[Bridge]
G|-----------------------------------------------------------------------|
D|-----------------------------------------------------------------------|
A|-2--2-2--2--2-2--2--2-2--2--2-2-4--5--5-5--5--5-5--5--5-5--5--5-5-7----|
E|-----------------------------------------------------------------------|

G|----------------------------------------------------------------|
D|----------------------------------------------------------------|
A|-----------------------------------------------10--10-10--------|
E|-2--2-2--2--2-2--2--2-2--2--2-2-5--3--3-3--/10------------10----|

G|----------------------------------------------------|
D|----------------------------------------------------|
A|----------------------------------------------------|
E|-12-12-12-12-12-12-12-12-12-12-12-12-12-12-12-12----|


[Pre-Chorus 3]
G|------------------------------------|
D|-7-7-5---7-7------------------------|
A|-------7-----7-7-5-5-5-0-5-5-0-5----|
E|------------------------------------|

G|---------------------------------------|
D|---------------------------------------|
A|-7-7-7-----------7-7-7-7-7-7-7-7-7\----|
E|-------7-0-0-0-7-----------------------|


[Chorus 3] (I might be missing some notes here)
G|------------------------------------------------------------|
D|------7-7---------7-7---------------------------------------|
A|-----------7----8-----7--7-7-7-------7---5-5-5-0-8-7-5-7----|
E|-5--5--------5-----------------7-0-7---7--------------------|

G|-------------------------------------------------------------|
D|------7-7---------7-7----------------------------------------|
A|-----------7----8-----7-7-7-7-7-------7---5-5-5-0-8-7-5-7----|
E|-5--5--------5------------------7-0-7---7--------------------|

G|-------------------------------------------------------------------|
D|---------7-7-------7-----------------------------------------------|
A|---------------7-----8\-------7-7-7-7-------7---5-5-5-0-8-7-5-0----|
E|-5-5-5-5---------5------5-7-8---------7-0-7---7--------------------|

G|------------------------------------------------|
D|------------------------------------------------|
A|-----------------/10-10-10-10-10-10-10-10-12----|
E|-3-3-3-3-3-3-3-3--------------------------------|

************************************

| /   slide up
| \   slide down
| h   hammer-on
| p   pull-off
| ~   vibrato
| +   harmonic
| x   Mute note
| b   Bend
| pb  Pre-bend
| br  Bend release
| pbr Pre-bend release
| brb Bend release bend

************************************
Suggest correction
Give kudos to tab author, rate the tab!
1 2 3 4 5
comments
print report bad tab
guest
You may want to rate the tab now too:
select rating
Wanna post a correction for this tab? Suggest correction