Oops, an error
Loading. Please wait.

Middle Ground Bass Tab

19 views 1 this week
no commentswrite comment
1 2 3 4 5
3 more votes to show rating
add to favorites
launch autoscroll
font size
0
reset
guitar tuner
Autoscroll
slow
fast
+/-
esc
set tempo
stop
Help us to improve Ultimate-Guitar.com Take our survey!
×
Author
Difficulty
intermediate
-------------------------------------------------------------------------------
                          Middle Ground - The Dear Hunter
-------------------------------------------------------------------------------
Tabbed by: David Benitez
E-mail: debml700@gmail.com

Tuning: Standard (EADG)

[Intro]
G|-------------------------------------------------------------|
D|------------------------------------------------3-5-3--------|
A|-----------------------3-5----------------------------4------|
E|-3\----3\----3\----3-6--------3\----3\----3\------------6----|


[Verse 1]
G|-------------------------------------------------------------|
D|-------------------------------------------------------------|
A|-----------------------1-1--------------------------7-7-7----|
E|-3\----3\----3\----3\1--------3\----3/5-5-5-6\----6----------|

G|----------------------------------------------------------------------|
D|------------------------------------------5\--------------5---3-------|
A|-6\----6\----6\----6\-3-/8-/10----------5---------------5---5---5\----|
E|----------------------------------3\------------6-3\------------------|

G|---------------------------------------------------------------------|
D|---------5\----------------------------------------------------------|
A|-------5-----------------7---7-7-6\----5-6\----5-6\----5-6--6-6-5----|
E|-3/----------3-5-6-6\--6---7-----------------------------------------|


[Pre-Chorus 1] (although there’s no chorus this time)
G|-------------------------------|
D|-------------------------------|
A|-6-6-6-6-6-6-6-6-6-6-6-6-------|
E|--------------------------1----|

G|------------------------------------------------------------------------|
D|---------------------------------------------------------------5---3----|
A|-------------------------(3)/5-8-5---------------------------5---5------|
E|-3-3-3-3-3-3-3-3-3-3-3-3-----------1-3-3-3-3-3-3-3-3-3-3-3-3------------|


[Verse 2]
G|--------------------------------------------------------------|
D|--------------------------------------------------------------|
A|-----------------------1-1-------------------------7---7-7----|
E|-3\----3\----3\----3\1--------3\----3/5-5-5-6\-------7--------|

G|-----------------------------------------------------------------|
D|-----------------------------------------------------------------|
A|-6\----5-6\----5-6\----5-6---6---6\----5-6\----5-6\----5-6--5----|
E|---------------------------6---6---------------------------------|


[Pre-Chorus 2]
G|--------------------------------------------------------------------|
D|---------------------------------3-3-3-3---------3-3-3-3-5---3------|
A|-3-3-3-3---------3-3-3-3-----------------------------------5---5----|
E|---------3-3-3-3---------3-3-3-3---------3-3-3-3--------------------|

G|--------------------------------------------------------------------|
D|--------------------------------------------------------------------|
A|-3-3-3-3---------3-3-3-3---------6-6-6-6-6-6-6-6-6-6-6-6-6-6-6------|
E|---------3-3-3-3---------3-3-3-3-------------------------------6----|

G|--------------------------------|
D|--------------------------------|
A|-6-6-6---6-6-6---6---6---6------|
E|-------6-------6---6---6---1----|


[Chorus 2]
G|--------------------------------------------------------------------|
D|--------------------------------------------------------------------|
A|---------------------------------6-6-6-6-6-6-6-6-6-6-6-6-6-6-6-8----|
E|-3-3-3-3-3-3-3-3-3-3-3-3-3-3-6-6------------------------------------|

G|--------------------------------------------------------------------|
D|--------------------------------------------------------------------|
A|---------------------------------3-3-3-3-3-3-3-3-3-3-3-3-5-5--------|
E|-5-5-5-5-5-5-5-0-5-5-5-5-5-5-5-0-----------------------------1-1----|

G|--------------------------------------------------------------------|
D|--------------------------------------------------------------------|
A|---------------------------------6-6-6-6-6-6-6-6-6-6-6-6-6-6-6-8----|
E|-3-3-3-3-3-3-3-3-3-3-3-3-3-3-6-6------------------------------------|

G|--------------------------------------------------------------------|
D|--------------------------------------------------------------------|
A|---------------------------------3-3-3-3-3-3-3-3-3-3-3-3-5-5--------|
E|-5-5-5-5-5-5-5-0-5-5-5-5-5-5-0-5-----------------------------6-6----|


[Solo]
G||--------------------------------------------------------------------------|
D||-------------10----12\--------------13-----------------------14----11\----|
A||-10-10-10-10----10------------------------15-----12-12-12-12----12--------|
E||------------------------11-11-11-11----11----11---------------------------|

G|-------------------------||
D|-------------12-------10-||
A|-------------------13----|| x2
E|-11-11-11-11----11-------||

G|-------------------------------------------------------------------|
D|-------------------------------------------------------------------|
A|-10--------\-------------------------------------------------------|
E|-------------1--------3\----3-3\----3\----3\----3-3-3-3-3-3-3-3----|

[Chorus 3]
G|------------------------------------------------------------|
D|------------------------------------------------------------|
A|-------------8--8--------3-3-3-3---------3-3-3-3------------|
E|-1--1--3--3--------3--3----------3-3-3-3---------3-3-5-6----|

G|--------------------------------------------------------------|
D|--------------------------------------------------------------|
A|-6-6-6-6-6-6-6-6-6-6-6-6-6-6-6---6-6-6---6-6-6---6---6---5----|
E|-------------------------------6-------6-------6---6---6------|


[Outro]
G|--------------------------------------------------------|
D|--------------------------------------------------------|
A|-----------------------1-1-----------------------1-1----|
E|-3\----3\----3\----3\1-----3\----3\----3\----3\1--------|

************************************

| /   slide up
| \   slide down
| h   hammer-on
| p   pull-off
| ~   vibrato
| +   harmonic
| x   Mute note
| b   Bend
| pb  Pre-bend
| br  Bend release
| pbr Pre-bend release
| brb Bend release bend

************************************
Suggest correction
Give kudos to tab author, rate the tab!
1 2 3 4 5
comments
print report bad tab
guest
You may want to rate the tab now too:
select rating
Wanna post a correction for this tab? Suggest correction