Oops, an error
Loading. Please wait.

Mr Usher On His Way To Town bass

343 views 3 this week
no commentswrite comment
1 2 3 4 5
x 3
add to favorites
×
Save as Personal and add changes to this tab that will be seen only by you. Learn more ›
×
You can save this tab as Personal to edit and correct it or add notes. All changes will be seen only by you. Learn more »
launch autoscroll
font size
0
reset
guitar tuner
edit
Autoscroll
slow
fast
+/-
esc
set tempo
stop
Author
Difficulty
About this tab version
This is a complete bass tab of Mr. Usher by The Dear Hunter. Was this info helpful? Yes No
Song: Mr. Usher (On His Way to Town)
Artist: The Dear Hunter
Album: Act V: Hymns with the Devil in Confessional

This song is originally played on an upright bass,
but plucking near the neck and turning your pickup
balance away from the bridge should create a similar sound.

[Verse] 0:25
G|-----------------|-----------------|-------------4---|-5---------------|
D|-----------------|-------------4---|-5-------5-------|-----5---4-------|
A|-3-------3---4---|-5-------5-------|-----5-----------|-----------------|
E|-----3-----------|-----5-----------|-----------------|-------------2---|
  
G|-------------------------|-----------------|-----------------|-----------------|
D|-5-------1-------1-------|-------------4---|-5-------5-------|---------5-------|
A|-----1-------------------|-----4---5-------|-----5-------5---|-----5-------5-4-|
E|-------------------------|-4---------------|-----------------|-3---------------|

[Verse] 0:51
G|-----------------|-----------------|-------------4---|-5---------------|
D|-----------------|-------------4---|-5-------5-------|-----5---4-------|
A|-3-------3---4---|-5-------5-------|-----5-----------|-----------------|
E|-----3-----------|-----5-----------|-----------------|-------------2---|

G|-------------------------|-----------------|-------------------------------------|
D|-5-------1-------1-------|-------------4---|-5-----------------------------3---4-|
A|-----1-------------------|-----4---5-------|------5----------------3-5---6-------|
E|-------------------------|-4---------------|-----------6-3---5-6-----------------|

G|-----------------|-----------------|-----------------|-----------------|
D|-5-----3-4-5-3---|-----------------|-----------------|-5-------5-------|
A|-----5---------5-|-3-3---3---3----3|-5--x----5-------|-----5-------5-4-|
E|---6-------------|-----------------|------5----------|-----------------|

G|-----------------|-----------------|-------------4---|-5---------------|
D|-----------------|-------------4---|-5-------5-------|-----5---4-------|
A|-3-------3-3-3-4-|-5-------5-------|-----5-----------|-----------------|
E|-----3-----------|-----5-----------|-----------------|-------------2---|

G|-----------------|-----------------|-----------------|-----------------|
D|-5-------1-------|-1-------6-------|-----4---5-------|-5-3-------------|
A|-----1-----------|-------------6---|-5-----------5---|-----5-----------|
E|-----------------|-----------------|-----------------|-------6-3\------|

[Vocal Break] 1:44 - "Any time a plan will get a bit off track..."

[Bridge] 1:52
G|---|------------------|----------------|----------------|-3----------5----|
D|--5|5-4-3-2----------0|5----5---------5|5--5--5--------5|----5--3---5----5|
A|---|---------5-4-3-2--|----------------|----------------|-----------------|
E|---|------------------|----------------|----------------|-----------------|

G|-7---------------|-----------------|-----------------|-----------------|----------------|
D|----5---5-------5|-3-----5-3------5|-3--3--3---------|-----------------|-------2-3-4-5\-|
A|-----------------|-----------------|------------0-3--|-5---------------|-3-5-6----------|
E|-----------------|-----------------|-----------------|-----------------|----------------|

[Vocal Break] 2:08 - "He'll take you to the river."

[Bridge] 2:18
G|---3-2-----------|-----------------|-----------------|---------------------------------|
D|-5-----5-4-----4-|-3---3---2-----2-|-1-----1-0-------|-----------------------------3--4|
A|------------5----|---3--------3----|----1----------5-|-4-------4------------3-5--6-----|
E|-----------------|-----------------|------------3----|-----5------5-3--5-6-------------|

G|-----------------|-----------------|-----------------|----------5---------------|-----------------|
D|-5---4---3---2---|-----------------|-----2---3---4---|-5--5-7-8-----------------|-12~-------------|
A|-----------------|-6---5---3-------|-6---------------|------------------5-7-8-9/|-----------------|
E|-----------------|-------------6---|-----------------|------------8-5-8---------|-----------------|

[Piano Solo] 2:46
G|-----------------|-----------------|-----------------|-------------4---|
D|-5---------------|-----------------|-------------4---|-5-------5-------|
A|-----5-------5-4-|-3-------3-----3-|-5-------5-------|-----5-----------|
E|---------3--6----|-----3-------3---|-----5-----------|-----------------|

G|-5---------------|-----------------|-----------------|-------------------------|
D|-----5---4-------|-----------------|---------6-------|-----4---5-------5-3-----|
A|---------------3-|---------6-------|-6-----------6---|-5-----------5-------5---|
E|-------------5---|-3---6-------6---|-----6-----------|-----------------------6-|

[Outro] 3:10
G|-----------------|-----------------|-----------------|-------------4---|
D|-5---------------|-----------------|-------------4---|-5-------5-------|
A|-----5-------5-4-|-3-------3---4---|-5-------5-------|-----5-----------|
E|---------3-------|-----3-----------|-----5-----------|-----------------|

G|-5---------------|-----------------|-----------------|---------------------|
D|---5---5-4-------|-5---------------|---------6-------|-----4---5-------8-7-|
A|-----3---------5-|---------6-------|-6-----------6---|-5-----------5-------|
E|-------------5---|-----5-------6---|-----6-----------|---------------------|

G|-----------------|------------------------|-----------------|-----------------|
D|-6-----------4---|-5-------5---8-7-5------|-6~--------------|------5~---------|
A|-----6---5-------|-----5-------------0-5-8|---------5~------|-----------------|
E|-----------------|------------------------|-----------------|-----------------|

*********************************

Legend:
\ - slide down
/ - slide up
~ - let note ring
x - muted note

            
            
Suggest correction
Creating personal tab
Creating personal tab
You can edit any tab online and save it as your Personal.

You can edit, replace or remove any tab part or add personal notes – all changes will be seen only by you.

Personal tabs can be accessed anytime from any device, even offline.
Learn more »
Give kudos to tab author, rate the tab!
1 2 3 4 5
comments
print report bad tab
guest
You may want to rate the tab now too:
select rating
Wanna post a correction for this tab? Suggest correction