Oops, an error
Loading. Please wait.

Mr Usher On His Way To Town Tab

370 views 15 this week
no commentswrite comment
1 2 3 4 5
3 more votes to show rating
add to favorites
launch autoscroll
font size
0
reset
how to read this tab
guitar tuner
Autoscroll
slow
fast
+/-
esc
set tempo
stop
Help us to improve Ultimate-Guitar.com Take our survey!
×
Author
Difficulty
Tuning
intermediate
D# G# C# F# A# D#
[Solo 1]
D#|---------------------------------------------------------------------------|
A#|----------------------------------------------------11/12------------------|
F#|-------------9-8------------8-------9--8h9p8/7h8---------------------------|
C#|------------------------11---------------------------------12--------------|
G#|------10-11-------10----------8--------------------------------------------|
D#|---------------------------------------------------------------------------|

D#|--11--9--------------------------------------------------------------------|
A#|--11--9--7--5------7-----------------12/-----------------------------------|
F#|---------6--6--------8---9-8---------13/-----------------------------------|
C#|-----------------------7---------------------------------------------------|
G#|---------------------------------------------------------------------------|
D#|---------------------------------------------------------------------------|
 
[Solo 2]
D#|----------------------------------------------------6h7--------------------|
A#|---------------------------------------------------------------------------|
F#|-------------9-8------------8-------9--8h9p8/7h8--------7------------------|
C#|------------------------11-------------------------------------------------|
G#|------10-11-------10----------8--------------------------------------------|
D#|---------------------------------------------------------------------------| 
 
D#|----------------4----7-----------4--7--9-----11-9------------9-------------|
A#|-----------5------5--------------4--7--9----------12----9-12-9-------------|
F#|-------6-----6-----------4---------------------------10--------------------|
C#|---------7-----------------5-6---------------------------------------------|
G#|-----7-----------------6---------------------------------------------------|
D#|---------------------------------------------------------------------------|

D#|----------------------------------------------------------11-12-14-15-------|
A#|---12-11-------12-11-----------------11-12--14 -15-12-15--11-12-14-15-------|
F#|---------12-13-------10--13--10--13--12-13--15--16-13-16---------------12---|
C#|-----------------------------------------------------------------------13---| 
G#|----------------------------------------------------------------------------|
D#|----------------------------------------------------------------------------|

D#|---------------------------------------------------------------------------|
A#|--12/----------------------------------------------------------------------|
F#|--13/----------------------------------------------------------------------|
C#|---------------------------------------------------------------------------|
G#|---------------------------------------------------------------------------|
D#|---------------------------------------------------------------------------|


************************************

| h   Hammer-on
| p   Pull-off
| /   Slide up

************************************
Suggest correction
Give kudos to tab author, rate the tab!
1 2 3 4 5
comments
print report bad tab
guest
You may want to rate the tab now too:
select rating
Wanna post a correction for this tab? Suggest correction