Oops, an error
Loading. Please wait.

The Bitter Suite 1 And 2 Meeting Ms Leading Through The Dime bass

3,255 views 6 this week
2 commentsread comments
1 2 3 4 5
x 3
add to favorites
×
Save as Personal and add changes to this tab that will be seen only by you. Learn more ›
×
You can save this tab as Personal to edit and correct it or add notes. All changes will be seen only by you. Learn more »
launch autoscroll
font size
0
reset
guitar tuner
edit
Autoscroll
slow
fast
+/-
esc
set tempo
stop
Author
Difficulty
The Bitter Suite 1 and 2: Meeting Ms. Leading / Through The Dime
The Dear Hunter
Act II- The Meaning of, & All Things Regarding Ms. Leading

Tabbed By : fender4string
Tuning: Standard


Awesome song by a very talented band.  Any corrections please feel free to
let me know.  Enjoy and please rate.


Rest until 1:58 (to me it sounds as if everything up to this point is
orchestral; besides piano of course. Correct me if I'm wrong)


"She danced to the door..."
G|----------------------------------------------------------------|
D|----------------------------------------------------------------|
A|-8-8-8-8-8-8-8-8-8-8-8-8\-3-3-3-3-3-3-/7-7-7-7-7-7-7-7-7-7-7-7--| 4x
E|----------------------------------------------------------------|

G|---------------------------------------------------|
D|----------------------7------------------------7---|
A|-5-----2-3--------7------5------2-3--------7-------|
E|-----5--------5---------------5-------5------------|

G|---------------------------------------------------|
D|---------------------------------------------------|
A|-8\------0-2-3-----3----8\-------0-2-3----5----7---|
E|-----1-3--------3------------1-3-------------------|

G|---------------------------------------------------|
D|----------------------7------------------------7---|
A|-5-----2-3--------7------5------2-3--------7-------|
E|-----5--------5---------------5-------5------------|

G|---------------------------------------------------|
D|---------------------------------------------------|
A|-8\------0-2-3-----3------------6-8-7--------------|
E|-----1-3--------3------4---4-7----------7---4---5\-|


Piano/Drum Break


"Gentlemen, presenting the very lovely ladies of The Dime..." (Love this part)
G|------------------------------------------------------------------------|
D|------------------------------------------------------------------------|
A|------------------------------10--10\---------------------------3h5p3---|
E|-5--5--0-3-4-5--5--5--0-3-4-5---------x5--0-3-4-5--5--5--0-3-4-5--------|

G|---------------------------------------------------------------------------|
D|---------------------------------------------------------------------------|
A|------------------------------10--10\--------------------------------------|
E|-5--5--0-3-4-5--5--5--0-3-4-5----------5--0-3-4-5--5--5--0-3-4-5--5--5--5\-|

"Where's her heart......"
G|---------------------------------------------------|
D|---------------------------------------------------|
A|---------------------------------------------------|
E|-5--0--5--0--5--0--5--0--1-----1-----------1----1--|

G|----------------------------------------------------------|
D|----------------------------------------------------------|
A|----------------------------------------------------------|
E|-34-5--0--5-5-5-0--5-5-0--5-5--1------1---------1-----1---|

"But the perks are more than price..."
G|---------------------------------------------------|
D|---------------------------------------------------|
A|----7----5--7--------7-----7-----5--7--------7-----|
E|-5----5--------7--5-----5-----5--------7--5---5----|

"Her history is left behind........"
G|--------------------------------------------------------------------------------|
D|-------------------------5h7777777777-5h77777777777-5h777775h7777-5h7-7-777777--|
A|--------------------------------------------------------------------------------|
E|-2---2-3---3-4---4-5---5--------------------------------------------------------|

G|--------------------------------------------------------------------------|
D|-------------------------5h7777777777-5h77777777777-5h77777777777777------|
A|--------------------------------------------------------------------------|
E|-2---2-3---3-4---4-5---5---------------------------------------------5----|

"Take a chair...."
G|---------------------------------------------------|
D|---------------------------------------------------|
A|---------------------------------------------------|
E|-5--0--5--0--5--0--5--0--1-----1-----------1----1--|

G|----------------------------------------------------------|
D|----------------------------------------------------------|
A|----------------------------------------------------------|
E|-34-5--0--5-5-5-0--5-5-0--5-5--1------1---------1-----1---|

"'Cause if you boys are nice...."
G|---------------------------------------------------|
D|---------------------------------------------------|
A|----7----5--7--------7-----7-----5--7--------7-----|
E|-5----5--------7--5-----5-----5--------7--5---5----|

G|--------------------------------------------------------------------------------|
D|-------------------------5h7777777777-5h77777777777-5h777775h7777-5h7-7-777777--|
A|--------------------------------------------------------------------------------|
E|-2---2-3---3-4---4-5---5--------------------------------------------------------|

G|----------------------------------------------------------------------------5--------------|
D|-------------------------5h7777777777-5h77777777777-5h77777777777-7-5---5-7---7-5----------|
A|----------------------------------------------------------------------7-----------7-5------|
E|-2---2-3---3-4---4-5---5--------------------------------------------------------------7-5--|



| /  slide up
| \  slide down
| h  hammer-on
| p  pull-off
| ~  vibrato
| +  harmonic
| x  Mute note
=================================================================

            
            
Suggest correction
Creating personal tab
Creating personal tab
You can edit any tab online and save it as your Personal.

You can edit, replace or remove any tab part or add personal notes – all changes will be seen only by you.

Personal tabs can be accessed anytime from any device, even offline.
Learn more »
Give kudos to tab author, rate the tab!
1 2 3 4 5
comments
print report bad tab
2 comments total.
+1 reply
artome 10 Sep 29, 2010 06:46 AM

awesome tabbing for an awesome band mate! just a question, in the last tab the 7-5 on the string should it be 8-7? great stuff again!

0 reply
fender4string 569 Mar 12, 2011 09:53 AM

To my ears at least, the run at the end is correct. It sounds like a straight little box run.

guest
You may want to rate the tab now too:
select rating
Wanna post a correction for this tab? Suggest correction