Oops, an error
Loading. Please wait.

The Bitter Suite Iv And V The Congregation And The Sermon In The Silt bass

version 1
version 1

Whole song

Interactive

1,711 views 3 this week
2 commentsread comments
1 2 3 4 5
x 4
add to favorites
×
Save as Personal and add changes to this tab that will be seen only by you. Learn more ›
×
You can save this tab as Personal to edit and correct it or add notes. All changes will be seen only by you. Learn more »
launch autoscroll
font size
0
reset
guitar tuner
edit
Autoscroll
slow
fast
+/-
esc
set tempo
stop
Author
Difficulty
The Bitter Suite IV and V: The Congregation and the Sermon in the Silt
The Dear Hunter
Act IV: Rebirth in Reprise
Tabbed by: fender4string

Rest until 0:25

Verse 1
“They come in crowds to hear him speak…”
G------------------------------------------------------------------------
D-------------------------------8-9---------12---11-10-9----9-----12-13--
A-8---------8-----------8-10-11--------11----------------------11--------
E------8----------8---8--------------------------------------------------

“…distance in this instance you’re a stranger…”
G--------------------------------------------------------------------------
D-10----------------------------------------------11---10-9-8--------8—11--
A--------10----------------------------8-9---------------------9--11-------
E---------------11--10-9-8-----8-10-11---------9---------------------------

“Commanding listeners to believe…”
G-------------------------------------------------------------------------
D------------------------------8-9----------12---11-10-9----9------12-13--
A------8---------------8-10-11---------11-----------------------11--------
E-8---------8-----1--8----------------------------------------------------

“He’ll take the stage and leave…”
G-------------------------------------------------------------------------
D-10----------------------------------------------10-9-8-----------8—11---
A------10---------------------------8-9----------------------9--11--------
E------------11--10-9-8-----8-10-11------9------9-------------------------

Bridge 1
“So father won’t you tend your flock…”
G----------------------------------------------------------------------------------
D----------------------------------------------------------------------------------
A-------------------------3-------------4-----------1----------3---------------3-3-
E-1-----------4--------------------------------------------------------------------

Verse 2
Repeat X3
G-------------------------------------3h5-3------------------------------------------------
D-3----------3--5-6--5-3---3-3---3-3--------6-5-3------------------------------------------
A-------3----------------------3------------------3-4---------4----------4----------3------
E--------------------------------------------------------4---------4----------4----------3-

“I swear you’ll get what you need…
G------------------------------------3h5-3------------------------------------------------
D-3----------3--5-6--5-3---3-3---3-3-------6-5-3------------------------------------------
A-------3----------------------3-----------------3-4---------4----------4---------3-3-----
E-------------------------------------------------------4---------4----------4--------4-3-

Chorus
G------------------------------------------------------------------------
D------3-----------------------------------3------------------0-1---1-0--
A-1--------1-1---------3--------------1----------1-1---------3----1------
E--------------4-3-1--------1-1-3-4------------------4-3-1-4-------------

G---------------------------------------------------------------------------------------------
D------3-----------------------------------3--------------------------------------------------
A-1--------1-1---------3--------------1----------1-1---------------3---------4---3--------3-3-
E--------------4-3-1--------1-1-3-4------------------4-3-1----4---------4-6-------------------

Verse 2 X3 (No variations)

Chorus (No variations)

Bridge 2

X2
G--------------------------------------------------------------------------------------------
D--------------------------------------------------------------------------------------------
A--------------------------------------------------------------------------------------------
E-0----0----1----1----0----0----1----1----0----0----1----1----0----0----1----1-----

G-5------------8----------------------------------------------------------
D-------3-------------6---------------------------------------------------
A----------------------------------------------------------3-3-3-3--------
E--------------------------0-0-0-0-1-1-1-1-3-3-3-3-4-4-4-4---------1------


Chorus (No Variations save an extra Db to C at the end)

Verse 1 Reprise
G-------------------------------------------------------------------------
D------------------------------8-9------------12---11-10-9----9----12-13--
A-8---------8----------8-10-11---------11------------------------11-------
E------8---------8---8----------------------------------------------------

G-----------------------------------------------------------------------------------
D-10--------------------------------------------------------------------------------
A------10--------------------------8-9---------9---------9-----------9--------------
E-----------11--10-9-8-----8-10-11--------9---------9----------9--------------------




            
            
Suggest correction
Creating personal tab
Creating personal tab
You can edit any tab online and save it as your Personal.

You can edit, replace or remove any tab part or add personal notes – all changes will be seen only by you.

Personal tabs can be accessed anytime from any device, even offline.
Learn more »
comments
print report bad tab
2 comments total.
0 reply
Debml 1,082 Oct 26, 2016 07:59 PM

This is pretty great, but in the second bar of the chorus there is an unnecessary repetition of the first half of the first bar of the chorus! Anyways, easy to spot that while playing...Definitely 5 stars

0 reply
yoshinamoriiii 10 Jan 10, 2017 08:38 AM

Debml is right. Very great tab though! 5 stars indeed

guest
You may want to rate the tab now too:
select rating
Wanna post a correction for this tab? Suggest correction