Oops, an error
Loading. Please wait.

The Dead Dont Starve Bass Tab

19 views 1 this week
no commentswrite comment
1 2 3 4 5
3 more votes to show rating
add to favorites
launch autoscroll
font size
0
reset
guitar tuner
Autoscroll
slow
fast
+/-
esc
set tempo
stop
Help us to improve Ultimate-Guitar.com Take our survey!
×
Author
-------------------------------------------------------------------------------
                     The Dead Don’t Starve - The Dear Hunter
-------------------------------------------------------------------------------
Tabbed by: David Benitez
E-mail: debml700@gmail.com

Tuning: Standard (EADG)

[Intro]
G|------------|----------|------------|-----------|
D|------------|----------|------------|-----------|
A|------------|----------|------------|-----------|
E|-3-3--3-3-3-|-3-3--3-3-|-3-3--3-3-3-|-3-3--3-3--|


[Pre-Verse]
G|---------------|---------------|---------------|----------------|
D|---------------|---------------|---------------|----------------|
A|---------------|---------------|---------------|----------------|
E|-3-3--3-3-3--3-|-3-3--3-3-3--3-|-1-1--1-1-1--1-|-1-1--1-1-1--1--|

G|---------------|---------------|---------------|-----------|
D|---------------|---------------|---------------|-----------|
A|---------------|---------------|---------------|-----------|
E|-3-3--3-3-3--3-|-3-3--3-3-3--3-|-3-3--3-3-3--3-|-3-3--3-3--|


[Verse 1]
G||---------------|---------------|---------------|---------------|
D||---------------|---------------|---------------|---------------|
A||---------------|---------------|---------------|---------------|
E||-3-3--3-3-3--3-|-3-3--3-3-3--3-|-1-1--1-1-1--1-|-1-1--1-1-1--1-|
                                
G|---------------|---------------||
D|---------------|---------------||
A|---------------|---------------|| x2
E|-3-3--3-3-3--3-|-3-3--3-3-3--3-||
                                
G|-----------------|--------------------|
D|-----------------|--------------------|
A|-----------------|--------------------|
E|-1-1-1-1-1-1-1-1-|-1-1-1-1-1-1-1-1----|


[Chorus 1]
G|-----------------|-----------------|-----------------|--------------------|
D|-----------------|-----------------|-----------------|--------------------|
A|-1-1-1-1-1-1-1-1/|-6-6-6-6-6-6-6-6-|-6-6-6-6-6-6-6-6-|-8-8-8-8-8-8-8-8----|
E|-----------------|-----------------|-----------------|--------------------|

G|-----------------|-----------------|
D|-----------------|-----------------|
A|-----------------|-----------------|
E|-3-3-3-3-3-3-3-3-|-3-3-3-3-3-3-3-3-|

G|-----------------|-----------------|-----------------|--------------------|
D|-----------------|-----------------|-----------------|--------------------|
A|-1-1-1-1-1-1-1-1/|-6-6-6-6-6-6-6-6-|-6-6-6-6-6-6-6-7-|-8-8-8-8-8-8-8-8----|
E|-----------------|-----------------|-----------------|--------------------|

G|------------|----------|
D|------------|----------|
A|------------|----------|
E|-3-3--3-3-3-|-3-3--3-3-|


[Pre-Verse]
G|---------------|---------------|---------------|---------------|
D|---------------|---------------|---------------|---------------|
A|---------------|---------------|---------------|---------------|
E|-3-3--3-3-3--3-|-3-3--3-3-3--3-|-1-1--1-1-1--1-|-1-1--1-1-1--1-|
                                
G|---------------|---------------|---------------|---------------|
D|---------------|---------------|---------------|---------------|
A|---------------|---------------|---------------|---------------|
E|-3-3--3-3-3--3-|-3-3--3-3-3--3-|-3-3--3-3-3--3-|-3-3--3-3-3--3-|


[Verse 2]
G|------------|----------|------------|---------------|
D|------------|----------|------------|---------------|
A|------------|----------|------------|---------------|
E|-3-3--3-3-3-|-3-3--3-3-|-1-1--1-1-1-|-1-1--1-1--1/--|

G|---------------|---------------|-----------------|------------------|
D|---------------|---------------|-----------------|------------------|
A|---------------|---------------|-----------------|------------------|
E|-3-3--3-3-3--3-|-3-3--3-3-3--3-|-1-1-1-1-1-1-1-1-|-1-1-1-1-1-1-1-1--|

[Chorus 2]
G|-----------------|-----------------|-----------------|------------------|
D|-----------------|-----------------|-----------------|------------------|
A|-1-1-1-1-1-1-1-1/|-6-6-6-6-6-6-6-6-|-6-6-6-6-6-6-6-6-|-8-8-8-8-8-8-8-8--|
E|-----------------|-----------------|-----------------|------------------|

G|-----------------|------------------|
D|-----------------|------------------| (these are ones, not elevens)
A|-----------------|------------------|
E|-3-3-3-3-3-3-3-3-|-3-3-3-3--111--11-|

G|-----------------|-----------------|-----------------|------------------|
D|-----------------|-----------------|-----------------|------------------|
A|-1-1-1-1-1-1-1-1/|-6-6-6-6-6-6-6-6-|-6-6-6-6-6-6-6-7-|-8-8-8-8-8-8-8-8--|
E|-----------------|-----------------|-----------------|------------------|

G|-----------------|-----------------------|
D|-----------------|-----------------------|
A|-----------------|--------/10--8--5-5--3-|
E|-3-3-3-3-3-3-3-3-|-3-3-------------------|

G|-----------------|-----------------|-----------------|------------------|
D|-----------------|-----------------|-8---------------|------------------|
A|-1-1-1-1-1-1-1-1/|-6-6-6-6-6-6-6-6-|---6-6-6-6-6-6-6-|-8-8-8-8-8-8-8-8--|
E|-----------------|-----------------|-----------------|------------------|

G|-----------------|------------------|
D|-----------------|------------------| (these are ones, not elevens)
A|-----------------|------------------|
E|-3-3-3-3-3-3-3-3-|-3-3-3-3--111--11-|

G|-----------------|-----------------|-----------------|------------------|
D|-----------------|-----------------|-8---------------|------------------|
A|-1-1-1-1-1-1-1-1/|-6-6-6-6-6-6-6-6-|---6-6-6-6-6-6-7-|-8-8-8-8-8-8-8-8--|
E|-----------------|-----------------|-----------------|------------------|


[Pre-Solo]
G|------------|----------|------------|-----------|
D|------------|----------|------------|-----------|
A|------------|----------|------------|-----------|
E|-3-3--3-3-3-|-3-3--3-3-|-3-3--3-3-3-|-3-3--3-3--|


[Solo]
G|---------------|-------------|---------------|----------------|
D|---------------|-------------|---------------|----------------|
A|---------------|-------------|---------------|----------------|
E|-3-3--3-3-3--3-|-3-3--3-3-3--|-1-1--1-1-1--1-|-1-1--1-1-1--1--|

G|---------------|---------------|---------------|---------------|
D|---------------|---------------|---------------|---------------|
A|---------------|---------------|---------------|---------------|
E|-3-3--3-3-3--3-|-3-3--3-3-3--3-|-1/3--3-3-3--3-|-3-3--3-3-3--3-|

G|---------------|---------------|---------------|----------------|
D|---------------|---------------|---------------|----------------|
A|---------------|---------------|---------------|----------------|
E|-1-1--1-1-1--1-|-1-1--1-1-1--1-|-3-3--3-3-3--3-|-3-3--3-3-3--3--|

G|-----------------|------------------|
D|-----------------|------------------|
A|-----------------|------------------|
E|-1-1-1-1-1-1-1-1-|-1-1-1-1-1-1-1-1--|


[Chorus 3]
G|-----------------|-----------------|-----------------|--------------------|
D|-----------------|-----------------|-----------------|--------------------|
A|-1-1-1-1-1-1-1-1/|-6-6-6-6-6-6-6-6-|-6-6-6-6-6-6-6-7-|-8-8-8-8-8-8-8-8----|
E|-----------------|-----------------|-----------------|--------------------|

G|-----------------|-----------------------|
D|-----------------|-----------------------|
A|-----------------|--------/10--8--5-5--3-|
E|-3-3-3-3-3-3-3-3-|-3-3-------------------|

G|-----------------|-----------------|-----------------|--------------------|
D|-----------------|-----------------|-----------------|--------------------|
A|-1-1-1-1-1-1-1-1/|-6-6-6-6-6-6-6-6-|-6-6-6-6-6-6-6-6-|-8-8-8-8-8-8-8-8----|
E|-----------------|-----------------|-----------------|--------------------|

G|-----------------|-----------------------|
D|-----------------|-----------------------|
A|-----------------|--------/10--8--5-5--3-|
E|-3-3-3-3-3-3-3-3-|-3-3-------------------|

G|-----------------|-------8---------|-----------------|--------------------|
D|-----------------|-----------------|-----------------|--------------------|
A|-1-1-1-1-1-1-1-1/|-6-6-6---6-6-6-6-|-6-6-6-6-6-6-6-7-|-8-8-8-8-8-8-8-8----|
E|-----------------|-----------------|-----------------|--------------------|

G|-----------------|------------------|
D|-----------------|------------------| (these are ones, not elevens)
A|-----------------|------------------|
E|-3-3-3-3-3-3-3-3-|-3-3-3-3--111--11-|

G|-----------------|-----------------|-----------------|--------------------|
D|-----------------|-----------------|-----------------|--------------------|
A|-1-1-1-1-1-1-1-1/|-6-6-6-6-6-6-6-6-|-6-6-6-6-6-6-6-7-|-8-8-8-8-8-8-8-8----|
E|-----------------|-----------------|-----------------|--------------------|

G|------------|-----------|--------------|----------------|
D|------------|-----------|--------------|----------------|
A|------------|-----------|--------------|----------------| slowing down...
E|-3-3--3-3-3-|-3-3--3-3--|-3-3--3-3-3---|-3-3--3-3--0----|


[Outro]
G|---------|-----------|-----------|--------------|
D|---------|-------10--|-\-7-------|--------------|
A|---------|--3--/-----|--------5--|--3-3-3-------|
E|-3----0--|-----------|-----------|---------3----|

************************************

| /   slide up
| \   slide down
| h   hammer-on
| p   pull-off
| ~   vibrato
| +   harmonic
| x   Mute note
| b   Bend
| pb  Pre-bend
| br  Bend release
| pbr Pre-bend release
| brb Bend release bend

************************************
Suggest correction
Give kudos to tab author, rate the tab!
1 2 3 4 5
comments
print report bad tab
guest
You may want to rate the tab now too:
select rating
Wanna post a correction for this tab? Suggest correction