Oops, an error
Loading. Please wait.

The Lake And The River bass

version 1
version 1

Whole song

Interactive

1,805 views 12 this week
1 commentread comment
1 2 3 4 5
x 3
add to favorites
×
Save as Personal and add changes to this tab that will be seen only by you. Learn more ›
×
You can save this tab as Personal to edit and correct it or add notes. All changes will be seen only by you. Learn more »
launch autoscroll
font size
0
reset
guitar tuner
edit
Autoscroll
slow
fast
+/-
esc
set tempo
stop
Author
Difficulty
0:06-0:23

G|---------------|
D|6-6-6-6-6-6-6-6|
A|---------------|
E|---------------|[x3]


0:24-0:46

G|-----------------------------------------------------------------------|
D|-----------------------------------------------------------------------|
A|------------------------------3-6\0------------------------------------|
E|4-4-44--4444-6666-4-4-44--4444-4----4-4-44--4444-6666-4-4-44--4444-6464|


0:47-1:09
"Everything you lived and died for..."

G||*555-5--55---444-4--44-66666-3---33-3--2-2---22-1/5*||
D||*--------------------------------------------------*||
A||*--------------------------------------------------*||
E||*--------------------------------------------------*||[x2]


1:10-1:33
"You'll believe what you're meant to believe..."

G|5--5----------------------0h3p0------------------0-00-0------------->
D|-----5-----5-5-3--3-1-3--3-----3-1-1---1--1h3x1h3-------1-0-----0--->
A|-------3--3-3------------------------3----------------------3-2----->
E|-------------------------------------------------------------------->

<----------------------------0h3p0------------------0-00-0---------------|
<6--6-6-----3-1h2-3--3-1-3--3-----3-1-1---1--1h3x1h3-------1-0-----0-----|
<---------------------------------------3----------------------3-2---3\0-|
<-------4--4-4-----------------------------------------------------------|


1:45-2:31

G|-------------------------------------------------------------------------->
D|------------------1--11--11--11-3--------------------1x-01x-01x-01x-35x1-->
A|3--33--33--33-11-1----------------13x-13x-13x-13x31x1-------------------3x>
E|-------------------------------------------------------------------------->

<---------------------------------------------------------------------|
<-----------3---1x-01x-01x-01x35x-------------------------------------|
<13x-13x-13x-3x1-----------------6--------------------------------1-1-|
<---------------------------------4--44--44--44--41--11--13--33--3-3-3|

2:32-2:54
"You'll believe what you're meant to believe..."

G|5--5----------------------0h3p0------------------0-00-0------------->
D|-----5-----5-5-3--3-1-3--3-----3-1-1---1--1h3x1h3-------1-0-----0--->
A|-------3--3-3------------------------3----------------------3-2----->
E|-------------------------------------------------------------------->

<----------------------------0h3p0------------------0-00-0---------------|
<6--6-6-----3-1h2-3--3-1-3--3-----3-1-1---1--1h3x1h3-------1-0-----0-----|
<---------------------------------------3----------------------3-2---3\0-|
<-------4--4-4-----------------------------------------------------------|


2:55-3:18
                                                                      Play 2x
G||*----------------------------------------------------------------------*||
D||*----------------------------------------------------------------------*||
A||*3-3\0-33-3-222222-3-3\0-33-3-222222-3-3\0-33-3-222222-----------------*||
E||*-----------------------------------------------------44444444-33333333*||


3:41-4:27

G|---------------------------------------------------------------------->
D|---------------------------------------------------------------------->
A|---------------------222---------------------------------------------->
E|44--44--444--44--44-------44--44--444--44--\11--111--/44--44--44444--->

||*---------------------------------------*||--------->
||*---------------------------------------*||--------->
||*------------------3-----------------333*||--------->
||*4--4-44-4--4-4-44---4--4-44-4--4-4-4---*||[x2]----->

<---||*-------------------------*||    |-----------------------------------|
<---||*6-5h6-6-5-----6-5h6-5-8x8*||    |6-5h6-6-5-----6-5h6-5-8x-----------|
<---||*----------6--------------*||    |----------6-------------8x---------|
<---||*------------8------------*||[x3]|------------8-------------8~~~~~~~~|

4:32-5:00

G|----------------------------------------------------------|
D|----------------------------------------------------------|
A|6~~~~~~~~---------6~~~~~~~~-------------------------------|
E|---------8~~~~~~~~---------4-4-4-4-4-4-4-4-1-1-1-1-3-3-3-3|


5:01-5:24
"You'll believe what you're meant to believe..."

G|5--5----------------------0h3p0------------------0-00-0------------->
D|-----5-----5-5-3--3-1-3--3-----3-1-1---1--1h3x1h3-------1-0-----0--->
A|-------3--3-3------------------------3----------------------3-2----->
E|-------------------------------------------------------------------->

<----------------------------0h3p0------------------0-00-0---------------|
<6--6-6-----3-1h2-3--3-1-3--3-----3-1-1---1--1h3x1h3-------1-0-----0-----|
<---------------------------------------3----------------------3-2---3\0-|
<-------4--4-4-----------------------------------------------------------|


5:25-5:37

G|------------------------------------------------------------------------|
D|------------------------------------------------------------------------|
A|3-3\0-33-3-222222-3-3\0-33-3-222222-3-3\0-33-3-222222------------------3|
E|-----------------------------------------------------44444444-33333333--|

6:14-6:46

G|-----------------------------0----------------------0h3--------------->
D|---------------------------1x-3--1~~~1-----------1-3---3x1h3x1-------->
A|8\0-1h3~~~1h3x---1h3~~~1h3x-----------------------------------1h2/3~~~>
D|-------------------------------5x-----1x---3-1~~~--------------------->

<----------------------0-03-------------------0h3p0---------->
<---------------------3----3x-1~~~-1x----1~~~------3x1h3x1-0->
<---1h3x-----------1h3--3----3----1-----1----3--------------->
<--------5/10\0---------------------------------------------->


6:47-END
"Happiness is a knife..."

<-------0---------0-------0-------0h3p0---|---------|--------------->
<---1-3-------1-3-----1-3-------1------3p1|-1-3-----|--------------->
<-3-------333-------3-------333-----------|-----3x1-|---------1h3--->
<-----------------------------------------|--------1|-111-3-5x------>

    <-----------|---------------0|-5-0----------------3------|--->
    <-1---------|-------1-31--13-|-----1x1--------3h5x-5p3\1-|--->
    <---3x-1----|-----13----3----|---------3-111------------3|--->
    <-------53x1|-135------------|---------------1-----------|--->

    <-------------3x----|----------------------------------------|
    <---0-1-3-4-5---54x3|-1------------------1-------------------|
    <-3-----------------|---3-1--------1-3x1---3-1--------1-2-3\0|
    <-------------------|------4h5x1-5------------4h5x1-3--------|


Tab by A. Romanski

            
            
Suggest correction
Creating personal tab
Creating personal tab
You can edit any tab online and save it as your Personal.

You can edit, replace or remove any tab part or add personal notes – all changes will be seen only by you.

Personal tabs can be accessed anytime from any device, even offline.
Learn more »
Give kudos to tab author, rate the tab!
1 2 3 4 5
comments
print report bad tab
1 comment total.
0 reply
artome 10 Sep 29, 2010 06:54 AM

great tab, difficult at the end!

guest
You may want to rate the tab now too:
select rating
Wanna post a correction for this tab? Suggest correction